  0
SECTION
  2
ENTITIES
999
- - - Grid Lines - - -
  0
LINE
  8
0
 62
9
 10
0.000
 20
46200.000
 30
0
 11
0.000
 21
44600.000
 31
0
  0
LINE
  8
0
 62
9
 10
500.000
 20
46200.000
 30
0
 11
500.000
 21
44600.000
 31
0
  0
LINE
  8
0
 62
9
 10
1000.000
 20
46200.000
 30
0
 11
1000.000
 21
44600.000
 31
0
  0
LINE
  8
0
 62
9
 10
1500.000
 20
46200.000
 30
0
 11
1500.000
 21
44600.000
 31
0
  0
LINE
  8
0
 62
9
 10
2000.000
 20
46200.000
 30
0
 11
2000.000
 21
44600.000
 31
0
  0
LINE
  8
0
 62
9
 10
2500.000
 20
46200.000
 30
0
 11
2500.000
 21
44600.000
 31
0
  0
LINE
  8
0
 62
9
 10
3000.000
 20
46200.000
 30
0
 11
3000.000
 21
44600.000
 31
0
  0
LINE
  8
0
 62
9
 10
3500.000
 20
46200.000
 30
0
 11
3500.000
 21
44600.000
 31
0
  0
LINE
  8
0
 62
9
 10
0.000
 20
44600.000
 30
0
 11
3500.000
 21
44600.000
 31
0
  0
LINE
  8
0
 62
9
 10
0.000
 20
44800.000
 30
0
 11
3500.000
 21
44800.000
 31
0
  0
LINE
  8
0
 62
9
 10
0.000
 20
45000.000
 30
0
 11
3500.000
 21
45000.000
 31
0
  0
LINE
  8
0
 62
9
 10
0.000
 20
45200.000
 30
0
 11
3500.000
 21
45200.000
 31
0
  0
LINE
  8
0
 62
9
 10
0.000
 20
45400.000
 30
0
 11
3500.000
 21
45400.000
 31
0
  0
LINE
  8
0
 62
9
 10
0.000
 20
45600.000
 30
0
 11
3500.000
 21
45600.000
 31
0
  0
LINE
  8
0
 62
9
 10
0.000
 20
45800.000
 30
0
 11
3500.000
 21
45800.000
 31
0
  0
LINE
  8
0
 62
9
 10
0.000
 20
46000.000
 30
0
 11
3500.000
 21
46000.000
 31
0
  0
LINE
  8
0
 62
9
 10
0.000
 20
46200.000
 30
0
 11
3500.000
 21
46200.000
 31
0
  0
LINE
  8
0
 62
9
 10
100.000
 20
46200.000
 30
0
 11
100.000
 21
44600.000
 31
0
  0
LINE
  8
0
 62
9
 10
200.000
 20
46200.000
 30
0
 11
200.000
 21
44600.000
 31
0
  0
LINE
  8
0
 62
9
 10
300.000
 20
46200.000
 30
0
 11
300.000
 21
44600.000
 31
0
  0
LINE
  8
0
 62
9
 10
400.000
 20
46200.000
 30
0
 11
400.000
 21
44600.000
 31
0
  0
LINE
  8
0
 62
9
 10
600.000
 20
46200.000
 30
0
 11
600.000
 21
44600.000
 31
0
  0
LINE
  8
0
 62
9
 10
700.000
 20
46200.000
 30
0
 11
700.000
 21
44600.000
 31
0
  0
LINE
  8
0
 62
9
 10
800.000
 20
46200.000
 30
0
 11
800.000
 21
44600.000
 31
0
  0
LINE
  8
0
 62
9
 10
900.000
 20
46200.000
 30
0
 11
900.000
 21
44600.000
 31
0
  0
LINE
  8
0
 62
9
 10
1100.000
 20
46200.000
 30
0
 11
1100.000
 21
44600.000
 31
0
  0
LINE
  8
0
 62
9
 10
1200.000
 20
46200.000
 30
0
 11
1200.000
 21
44600.000
 31
0
  0
LINE
  8
0
 62
9
 10
1300.000
 20
46200.000
 30
0
 11
1300.000
 21
44600.000
 31
0
  0
LINE
  8
0
 62
9
 10
1400.000
 20
46200.000
 30
0
 11
1400.000
 21
44600.000
 31
0
  0
LINE
  8
0
 62
9
 10
1600.000
 20
46200.000
 30
0
 11
1600.000
 21
44600.000
 31
0
  0
LINE
  8
0
 62
9
 10
1700.000
 20
46200.000
 30
0
 11
1700.000
 21
44600.000
 31
0
  0
LINE
  8
0
 62
9
 10
1800.000
 20
46200.000
 30
0
 11
1800.000
 21
44600.000
 31
0
  0
LINE
  8
0
 62
9
 10
1900.000
 20
46200.000
 30
0
 11
1900.000
 21
44600.000
 31
0
  0
LINE
  8
0
 62
9
 10
2100.000
 20
46200.000
 30
0
 11
2100.000
 21
44600.000
 31
0
  0
LINE
  8
0
 62
9
 10
2200.000
 20
46200.000
 30
0
 11
2200.000
 21
44600.000
 31
0
  0
LINE
  8
0
 62
9
 10
2300.000
 20
46200.000
 30
0
 11
2300.000
 21
44600.000
 31
0
  0
LINE
  8
0
 62
9
 10
2400.000
 20
46200.000
 30
0
 11
2400.000
 21
44600.000
 31
0
  0
LINE
  8
0
 62
9
 10
2600.000
 20
46200.000
 30
0
 11
2600.000
 21
44600.000
 31
0
  0
LINE
  8
0
 62
9
 10
2700.000
 20
46200.000
 30
0
 11
2700.000
 21
44600.000
 31
0
  0
LINE
  8
0
 62
9
 10
2800.000
 20
46200.000
 30
0
 11
2800.000
 21
44600.000
 31
0
  0
LINE
  8
0
 62
9
 10
2899.999
 20
46200.000
 30
0
 11
2899.999
 21
44600.000
 31
0
  0
LINE
  8
0
 62
9
 10
3100.000
 20
46200.000
 30
0
 11
3100.000
 21
44600.000
 31
0
  0
LINE
  8
0
 62
9
 10
3200.000
 20
46200.000
 30
0
 11
3200.000
 21
44600.000
 31
0
  0
LINE
  8
0
 62
9
 10
3300.000
 20
46200.000
 30
0
 11
3300.000
 21
44600.000
 31
0
  0
LINE
  8
0
 62
9
 10
3400.000
 20
46200.000
 30
0
 11
3400.000
 21
44600.000
 31
0
  0
LINE
  8
0
 62
9
 10
0.000
 20
44700.000
 30
0
 11
3500.000
 21
44700.000
 31
0
  0
LINE
  8
0
 62
9
 10
0.000
 20
44900.000
 30
0
 11
3500.000
 21
44900.000
 31
0
  0
LINE
  8
0
 62
9
 10
0.000
 20
45100.000
 30
0
 11
3500.000
 21
45100.000
 31
0
  0
LINE
  8
0
 62
9
 10
0.000
 20
45300.000
 30
0
 11
3500.000
 21
45300.000
 31
0
  0
LINE
  8
0
 62
9
 10
0.000
 20
45500.000
 30
0
 11
3500.000
 21
45500.000
 31
0
  0
LINE
  8
0
 62
9
 10
0.000
 20
45700.000
 30
0
 11
3500.000
 21
45700.000
 31
0
  0
LINE
  8
0
 62
9
 10
0.000
 20
45900.000
 30
0
 11
3500.000
 21
45900.000
 31
0
  0
LINE
  8
0
 62
9
 10
0.000
 20
46100.000
 30
0
 11
3500.000
 21
46100.000
 31
0
  0
LINE
  8
0
 62
7
 10
0.000
 20
44600.000
 30
0
 11
0.000
 21
46200.000
 31
0
  0
LINE
  8
0
 62
7
 10
0.000
 20
46200.000
 30
0
 11
3500.000
 21
46200.000
 31
0
  0
LINE
  8
0
 62
7
 10
3500.000
 20
46200.000
 30
0
 11
3500.000
 21
44600.000
 31
0
  0
LINE
  8
0
 62
7
 10
3500.000
 20
44600.000
 30
0
 11
0.000
 21
44600.000
 31
0
999
- - - Axis - - -
  0
LINE
  8
0
 62
7
 10
0.000
 20
44600.000
 30
0
 11
0.000
 21
46200.000
 31
0
  0
LINE
  8
0
 62
7
 10
0.000
 20
44600.000
 30
0
 11
3500.000
 21
44600.000
 31
0
  0
LINE
  8
0
 62
7
 10
0.000
 20
44600.000
 30
0
 11
0.000
 21
44590.535
 31
0
  0
Text
  8
0
 10
0.000
 20
44585.802
 30
0
 40
23.66262
 50
0
  1
0
 72
1
 11
0.000
 21
44585.802
 31
0
 73
3
  0
LINE
  8
0
 62
7
 10
500.000
 20
44600.000
 30
0
 11
500.000
 21
44590.535
 31
0
  0
Text
  8
0
 10
500.000
 20
44585.802
 30
0
 40
23.66262
 50
0
  1
500
 72
1
 11
500.000
 21
44585.802
 31
0
 73
3
  0
LINE
  8
0
 62
7
 10
1000.000
 20
44600.000
 30
0
 11
1000.000
 21
44590.535
 31
0
  0
Text
  8
0
 10
1000.000
 20
44585.802
 30
0
 40
23.66262
 50
0
  1
1000
 72
1
 11
1000.000
 21
44585.802
 31
0
 73
3
  0
LINE
  8
0
 62
7
 10
1500.000
 20
44600.000
 30
0
 11
1500.000
 21
44590.535
 31
0
  0
Text
  8
0
 10
1500.000
 20
44585.802
 30
0
 40
23.66262
 50
0
  1
1500
 72
1
 11
1500.000
 21
44585.802
 31
0
 73
3
  0
LINE
  8
0
 62
7
 10
2000.000
 20
44600.000
 30
0
 11
2000.000
 21
44590.535
 31
0
  0
Text
  8
0
 10
2000.000
 20
44585.802
 30
0
 40
23.66262
 50
0
  1
2000
 72
1
 11
2000.000
 21
44585.802
 31
0
 73
3
  0
LINE
  8
0
 62
7
 10
2500.000
 20
44600.000
 30
0
 11
2500.000
 21
44590.535
 31
0
  0
Text
  8
0
 10
2500.000
 20
44585.802
 30
0
 40
23.66262
 50
0
  1
2500
 72
1
 11
2500.000
 21
44585.802
 31
0
 73
3
  0
LINE
  8
0
 62
7
 10
3000.000
 20
44600.000
 30
0
 11
3000.000
 21
44590.535
 31
0
  0
Text
  8
0
 10
3000.000
 20
44585.802
 30
0
 40
23.66262
 50
0
  1
3000
 72
1
 11
3000.000
 21
44585.802
 31
0
 73
3
  0
LINE
  8
0
 62
7
 10
3500.000
 20
44600.000
 30
0
 11
3500.000
 21
44590.535
 31
0
  0
Text
  8
0
 10
3500.000
 20
44585.802
 30
0
 40
23.66262
 50
0
  1
3500
 72
1
 11
3500.000
 21
44585.802
 31
0
 73
3
  0
LINE
  8
0
 62
7
 10
100.000
 20
44600.000
 30
0
 11
100.000
 21
44594.084
 31
0
  0
LINE
  8
0
 62
7
 10
200.000
 20
44600.000
 30
0
 11
200.000
 21
44594.084
 31
0
  0
LINE
  8
0
 62
7
 10
300.000
 20
44600.000
 30
0
 11
300.000
 21
44594.084
 31
0
  0
LINE
  8
0
 62
7
 10
400.000
 20
44600.000
 30
0
 11
400.000
 21
44594.084
 31
0
  0
LINE
  8
0
 62
7
 10
600.000
 20
44600.000
 30
0
 11
600.000
 21
44594.084
 31
0
  0
LINE
  8
0
 62
7
 10
700.000
 20
44600.000
 30
0
 11
700.000
 21
44594.084
 31
0
  0
LINE
  8
0
 62
7
 10
800.000
 20
44600.000
 30
0
 11
800.000
 21
44594.084
 31
0
  0
LINE
  8
0
 62
7
 10
900.000
 20
44600.000
 30
0
 11
900.000
 21
44594.084
 31
0
  0
LINE
  8
0
 62
7
 10
1100.000
 20
44600.000
 30
0
 11
1100.000
 21
44594.084
 31
0
  0
LINE
  8
0
 62
7
 10
1200.000
 20
44600.000
 30
0
 11
1200.000
 21
44594.084
 31
0
  0
LINE
  8
0
 62
7
 10
1300.000
 20
44600.000
 30
0
 11
1300.000
 21
44594.084
 31
0
  0
LINE
  8
0
 62
7
 10
1400.000
 20
44600.000
 30
0
 11
1400.000
 21
44594.084
 31
0
  0
LINE
  8
0
 62
7
 10
1600.000
 20
44600.000
 30
0
 11
1600.000
 21
44594.084
 31
0
  0
LINE
  8
0
 62
7
 10
1700.000
 20
44600.000
 30
0
 11
1700.000
 21
44594.084
 31
0
  0
LINE
  8
0
 62
7
 10
1800.000
 20
44600.000
 30
0
 11
1800.000
 21
44594.084
 31
0
  0
LINE
  8
0
 62
7
 10
1900.000
 20
44600.000
 30
0
 11
1900.000
 21
44594.084
 31
0
  0
LINE
  8
0
 62
7
 10
2100.000
 20
44600.000
 30
0
 11
2100.000
 21
44594.084
 31
0
  0
LINE
  8
0
 62
7
 10
2200.000
 20
44600.000
 30
0
 11
2200.000
 21
44594.084
 31
0
  0
LINE
  8
0
 62
7
 10
2300.000
 20
44600.000
 30
0
 11
2300.000
 21
44594.084
 31
0
  0
LINE
  8
0
 62
7
 10
2400.000
 20
44600.000
 30
0
 11
2400.000
 21
44594.084
 31
0
  0
LINE
  8
0
 62
7
 10
2600.000
 20
44600.000
 30
0
 11
2600.000
 21
44594.084
 31
0
  0
LINE
  8
0
 62
7
 10
2700.000
 20
44600.000
 30
0
 11
2700.000
 21
44594.084
 31
0
  0
LINE
  8
0
 62
7
 10
2800.000
 20
44600.000
 30
0
 11
2800.000
 21
44594.084
 31
0
  0
LINE
  8
0
 62
7
 10
2899.999
 20
44600.000
 30
0
 11
2899.999
 21
44594.084
 31
0
  0
LINE
  8
0
 62
7
 10
3100.000
 20
44600.000
 30
0
 11
3100.000
 21
44594.084
 31
0
  0
LINE
  8
0
 62
7
 10
3200.000
 20
44600.000
 30
0
 11
3200.000
 21
44594.084
 31
0
  0
LINE
  8
0
 62
7
 10
3300.000
 20
44600.000
 30
0
 11
3300.000
 21
44594.084
 31
0
  0
LINE
  8
0
 62
7
 10
3400.000
 20
44600.000
 30
0
 11
3400.000
 21
44594.084
 31
0
  0
LINE
  8
0
 62
7
 10
0.000
 20
44600.000
 30
0
 11
-9.465
 21
44600.000
 31
0
  0
Text
  8
0
 10
-18.930
 20
44600.000
 30
0
 40
23.66262
 50
0
  1
2230
 72
2
 11
-18.930
 21
44600.000
 31
0
 73
2
  0
LINE
  8
0
 62
7
 10
0.000
 20
44800.000
 30
0
 11
-9.465
 21
44800.000
 31
0
  0
Text
  8
0
 10
-18.930
 20
44800.000
 30
0
 40
23.66262
 50
0
  1
2240
 72
2
 11
-18.930
 21
44800.000
 31
0
 73
2
  0
LINE
  8
0
 62
7
 10
0.000
 20
45000.000
 30
0
 11
-9.465
 21
45000.000
 31
0
  0
Text
  8
0
 10
-18.930
 20
45000.000
 30
0
 40
23.66262
 50
0
  1
2250
 72
2
 11
-18.930
 21
45000.000
 31
0
 73
2
  0
LINE
  8
0
 62
7
 10
0.000
 20
45200.000
 30
0
 11
-9.465
 21
45200.000
 31
0
  0
Text
  8
0
 10
-18.930
 20
45200.000
 30
0
 40
23.66262
 50
0
  1
2260
 72
2
 11
-18.930
 21
45200.000
 31
0
 73
2
  0
LINE
  8
0
 62
7
 10
0.000
 20
45400.000
 30
0
 11
-9.465
 21
45400.000
 31
0
  0
Text
  8
0
 10
-18.930
 20
45400.000
 30
0
 40
23.66262
 50
0
  1
2270
 72
2
 11
-18.930
 21
45400.000
 31
0
 73
2
  0
LINE
  8
0
 62
7
 10
0.000
 20
45600.000
 30
0
 11
-9.465
 21
45600.000
 31
0
  0
Text
  8
0
 10
-18.930
 20
45600.000
 30
0
 40
23.66262
 50
0
  1
2280
 72
2
 11
-18.930
 21
45600.000
 31
0
 73
2
  0
LINE
  8
0
 62
7
 10
0.000
 20
45800.000
 30
0
 11
-9.465
 21
45800.000
 31
0
  0
Text
  8
0
 10
-18.930
 20
45800.000
 30
0
 40
23.66262
 50
0
  1
2290
 72
2
 11
-18.930
 21
45800.000
 31
0
 73
2
  0
LINE
  8
0
 62
7
 10
0.000
 20
46000.000
 30
0
 11
-9.465
 21
46000.000
 31
0
  0
Text
  8
0
 10
-18.930
 20
46000.000
 30
0
 40
23.66262
 50
0
  1
2300
 72
2
 11
-18.930
 21
46000.000
 31
0
 73
2
  0
LINE
  8
0
 62
7
 10
0.000
 20
46200.000
 30
0
 11
-9.465
 21
46200.000
 31
0
  0
Text
  8
0
 10
-18.930
 20
46200.000
 30
0
 40
23.66262
 50
0
  1
2310
 72
2
 11
-18.930
 21
46200.000
 31
0
 73
2
  0
LINE
  8
0
 62
7
 10
0.000
 20
44700.000
 30
0
 11
-5.916
 21
44700.000
 31
0
  0
LINE
  8
0
 62
7
 10
0.000
 20
44900.000
 30
0
 11
-5.916
 21
44900.000
 31
0
  0
LINE
  8
0
 62
7
 10
0.000
 20
45100.000
 30
0
 11
-5.916
 21
45100.000
 31
0
  0
LINE
  8
0
 62
7
 10
0.000
 20
45300.000
 30
0
 11
-5.916
 21
45300.000
 31
0
  0
LINE
  8
0
 62
7
 10
0.000
 20
45500.000
 30
0
 11
-5.916
 21
45500.000
 31
0
  0
LINE
  8
0
 62
7
 10
0.000
 20
45700.000
 30
0
 11
-5.916
 21
45700.000
 31
0
  0
LINE
  8
0
 62
7
 10
0.000
 20
45900.000
 30
0
 11
-5.916
 21
45900.000
 31
0
  0
LINE
  8
0
 62
7
 10
0.000
 20
46100.000
 30
0
 11
-5.916
 21
46100.000
 31
0
  0
Text
  8
0
 10
1750.000
 20
46244.367
 30
0
 40
29.57828
 50
0
  1
W331-332 - Butcher Hook Wash       Plan: Butcher Hook - Refined    5/8/2004 
 72
1
 11
1750.000
 21
46244.367
 31
0
 73
3
  0
Text
  8
0
 10
1750.000
 20
44500.820
 30
0
 40
23.66262
 50
0
  1
Main Channel Distance (ft)
 72
1
 11
1750.000
 21
44500.820
 31
0
 73
3
  0
Text
  8
0
 10
-141.976
 20
45400.000
 30
0
 40
23.66262
 50
90
  1
Elevation (ft)
 72
1
 11
-141.976
 21
45400.000
 31
0
 73
3
999
- - - Legend - - -
  0
Text
  8
0
 10
3606.482
 20
46188.169
 30
0
 40
23.66262
 50
0
  1
Legend
 72
1
 11
3606.482
 21
46188.169
 31
0
 73
3
  0
LINE
  8
0
 62
7
 10
3547.325
 20
46152.675
 30
0
 11
3665.638
 21
46152.675
 31
0
  0
LINE
  8
0
 62
4
 10
3547.325
 20
46117.181
 30
0
 11
3665.638
 21
46117.181
 31
0
  0
LINE
  8
0
 62
4
 10
3603.154
 20
46113.853
 30
0
 11
3609.809
 21
46120.508
 31
0
  0
LINE
  8
0
 62
4
 10
3603.154
 20
46120.508
 30
0
 11
3609.809
 21
46113.853
 31
0
  0
Text
  8
0
 10
3606.482
 20
46093.518
 30
0
 40
23.66262
 50
0
  1
WS  Q500
 72
1
 11
3606.482
 21
46093.518
 31
0
 73
3
  0
LINE
  8
0
 62
4
 10
3547.325
 20
46058.024
 30
0
 11
3665.638
 21
46058.024
 31
0
  0
LINE
  8
0
 62
4
 10
3603.154
 20
46060.243
 30
0
 11
3609.809
 21
46060.243
 31
0
  0
LINE
  8
0
 62
4
 10
3606.482
 20
46053.588
 30
0
 11
3609.809
 21
46060.243
 31
0
  0
LINE
  8
0
 62
4
 10
3606.482
 20
46053.588
 30
0
 11
3603.154
 21
46060.243
 31
0
  0
Text
  8
0
 10
3606.482
 20
46034.362
 30
0
 40
23.66262
 50
0
  1
WS  Q100
 72
1
 11
3606.482
 21
46034.362
 31
0
 73
3
  0
LINE
  8
0
 62
4
 10
3547.325
 20
45998.868
 30
0
 11
3665.638
 21
45998.868
 31
0
  0
LINE
  8
0
 62
4
 10
3603.154
 20
45996.649
 30
0
 11
3609.809
 21
45996.649
 31
0
  0
LINE
  8
0
 62
4
 10
3606.482
 20
46003.304
 30
0
 11
3609.809
 21
45996.649
 31
0
  0
LINE
  8
0
 62
4
 10
3606.482
 20
46003.304
 30
0
 11
3603.154
 21
45996.649
 31
0
  0
Text
  8
0
 10
3606.482
 20
45975.205
 30
0
 40
23.66262
 50
0
  1
WS  Q50
 72
1
 11
3606.482
 21
45975.205
 31
0
 73
3
  0
LINE
  8
0
 62
4
 10
3547.325
 20
45939.711
 30
0
 11
3665.638
 21
45939.711
 31
0
  0
Text
  8
0
 10
3606.482
 20
45916.049
 30
0
 40
23.66262
 50
0
  1
WS  Q10
 72
1
 11
3606.482
 21
45916.049
 31
0
 73
3
  0
LINE
  8
0
 62
7
 10
3547.325
 20
45880.555
 30
0
 11
3665.638
 21
45880.555
 31
0
  0
LINE
  8
0
 62
7
 10
3603.154
 20
45877.227
 30
0
 11
3603.154
 21
45883.882
 31
0
  0
LINE
  8
0
 62
7
 10
3603.154
 20
45883.882
 30
0
 11
3609.809
 21
45883.882
 31
0
  0
LINE
  8
0
 62
7
 10
3609.809
 20
45883.882
 30
0
 11
3609.809
 21
45877.227
 31
0
  0
LINE
  8
0
 62
7
 10
3609.809
 20
45877.227
 30
0
 11
3603.154
 21
45877.227
 31
0
  0
Text
  8
0
 10
3606.482
 20
45856.892
 30
0
 40
23.66262
 50
0
  1
Ground
 72
1
 11
3606.482
 21
45856.892
 31
0
 73
3
  0
LINE
  8
0
 62
7
 10
3523.663
 20
46200.000
 30
0
 11
3689.301
 21
46200.000
 31
0
  0
LINE
  8
0
 62
7
 10
3689.301
 20
46200.000
 30
0
 11
3689.301
 21
45821.398
 31
0
  0
LINE
  8
0
 62
7
 10
3523.663
 20
46200.000
 30
0
 11
3523.663
 21
45821.398
 31
0
  0
LINE
  8
0
 62
7
 10
3689.301
 20
45821.398
 30
0
 11
3523.663
 21
45821.398
 31
0
999
- - - Line Data - - -
999
- - - Line Data - - -
  0
LINE
  8
0
 62
7
 10
792.620
 20
44700.801
 30
0
 11
792.620
 21
44775.601
 31
0
  0
LINE
  8
0
 62
7
 10
792.620
 20
44775.601
 30
0
 11
829.620
 21
44805.801
 31
0
  0
LINE
  8
0
 62
7
 10
829.620
 20
44805.801
 30
0
 11
829.620
 21
44749.199
 31
0
  0
LINE
  8
0
 62
7
 10
829.620
 20
44749.199
 30
0
 11
792.620
 21
44700.801
 31
0
999
- - - Line Data - - -
  0
LINE
  8
0
 62
7
 10
2543.340
 20
45455.400
 30
0
 11
2543.340
 21
45644.902
 31
0
  0
LINE
  8
0
 62
7
 10
2543.340
 20
45644.902
 30
0
 11
2591.340
 21
45651.128
 31
0
  0
LINE
  8
0
 62
7
 10
2591.340
 20
45651.128
 30
0
 11
2591.340
 21
45510.801
 31
0
  0
LINE
  8
0
 62
7
 10
2591.340
 20
45510.801
 30
0
 11
2543.340
 21
45455.400
 31
0
999
- - - Line Data - - -
  0
LINE
  8
0
 62
7
 10
795.620
 20
44721.201
 30
0
 11
795.620
 21
44801.201
 31
0
  0
LINE
  8
0
 62
7
 10
795.620
 20
44801.201
 30
0
 11
835.620
 21
44809.399
 31
0
  0
LINE
  8
0
 62
7
 10
835.620
 20
44809.399
 30
0
 11
835.620
 21
44729.399
 31
0
  0
LINE
  8
0
 62
7
 10
835.620
 20
44729.399
 30
0
 11
795.620
 21
44721.201
 31
0
999
- - - Line Data - - -
  0
LINE
  8
0
 62
7
 10
795.620
 20
44710.601
 30
0
 11
795.620
 21
44790.601
 31
0
  0
LINE
  8
0
 62
7
 10
795.620
 20
44790.601
 30
0
 11
835.620
 21
44821.201
 31
0
  0
LINE
  8
0
 62
7
 10
835.620
 20
44821.201
 30
0
 11
835.620
 21
44741.201
 31
0
  0
LINE
  8
0
 62
7
 10
835.620
 20
44741.201
 30
0
 11
795.620
 21
44710.601
 31
0
999
- - - Line Data - - -
  0
LINE
  8
0
 62
7
 10
2494.340
 20
45450.601
 30
0
 11
2494.340
 21
45530.601
 31
0
  0
LINE
  8
0
 62
7
 10
2494.340
 20
45530.601
 30
0
 11
2638.340
 21
45573.198
 31
0
  0
LINE
  8
0
 62
7
 10
2638.340
 20
45573.198
 30
0
 11
2638.340
 21
45493.198
 31
0
  0
LINE
  8
0
 62
7
 10
2638.340
 20
45493.198
 30
0
 11
2494.340
 21
45450.601
 31
0
999
- - - Line Data - - -
  0
LINE
  8
0
 62
7
 10
0.000
 20
44603.198
 30
0
 11
542.910
 21
44650.000
 31
0
  0
LINE
  8
0
 62
7
 10
542.910
 20
44650.000
 30
0
 11
748.290
 21
44700.801
 31
0
  0
LINE
  8
0
 62
7
 10
748.290
 20
44700.801
 30
0
 11
792.620
 21
44700.801
 31
0
  0
LINE
  8
0
 62
7
 10
792.620
 20
44700.801
 30
0
 11
829.620
 21
44749.199
 31
0
  0
LINE
  8
0
 62
7
 10
829.620
 20
44749.199
 30
0
 11
863.620
 21
44749.199
 31
0
  0
LINE
  8
0
 62
7
 10
863.620
 20
44749.199
 30
0
 11
999.840
 21
44782.402
 31
0
  0
LINE
  8
0
 62
7
 10
999.840
 20
44782.402
 30
0
 11
1246.580
 21
44907.002
 31
0
  0
LINE
  8
0
 62
7
 10
1246.580
 20
44907.002
 30
0
 11
1262.630
 21
44874.600
 31
0
  0
LINE
  8
0
 62
7
 10
1262.630
 20
44874.600
 30
0
 11
1438.670
 21
44933.999
 31
0
  0
LINE
  8
0
 62
7
 10
1438.670
 20
44933.999
 30
0
 11
1576.360
 21
44976.602
 31
0
  0
LINE
  8
0
 62
7
 10
1576.360
 20
44976.602
 30
0
 11
1653.170
 21
44984.399
 31
0
  0
LINE
  8
0
 62
7
 10
1653.170
 20
44984.399
 30
0
 11
1771.840
 21
45034.199
 31
0
  0
LINE
  8
0
 62
7
 10
1771.840
 20
45034.199
 30
0
 11
2065.180
 21
45265.601
 31
0
  0
LINE
  8
0
 62
7
 10
2065.180
 20
45265.601
 30
0
 11
2118.050
 21
45281.802
 31
0
  0
LINE
  8
0
 62
7
 10
2118.050
 20
45281.802
 30
0
 11
2221.020
 21
45312.002
 31
0
  0
LINE
  8
0
 62
7
 10
2221.020
 20
45312.002
 30
0
 11
2400.710
 21
45382.998
 31
0
  0
LINE
  8
0
 62
7
 10
2400.710
 20
45382.998
 30
0
 11
2478.740
 21
45455.400
 31
0
  0
LINE
  8
0
 62
7
 10
2478.740
 20
45455.400
 30
0
 11
2543.340
 21
45455.400
 31
0
  0
LINE
  8
0
 62
7
 10
2543.340
 20
45455.400
 30
0
 11
2591.340
 21
45510.801
 31
0
  0
LINE
  8
0
 62
7
 10
2591.340
 20
45510.801
 30
0
 11
2641.340
 21
45510.801
 31
0
  0
LINE
  8
0
 62
7
 10
2641.340
 20
45510.801
 30
0
 11
2731.380
 21
45542.998
 31
0
  0
LINE
  8
0
 62
7
 10
2731.380
 20
45542.998
 30
0
 11
2820.500
 21
45624.199
 31
0
  0
LINE
  8
0
 62
7
 10
2820.500
 20
45624.199
 30
0
 11
3016.310
 21
45802.402
 31
0
  0
LINE
  8
0
 62
7
 10
3016.310
 20
45802.402
 30
0
 11
3299.260
 21
45961.201
 31
0
999
- - - Symbol Data - - -
  0
LINE
  8
0
 62
7
 10
-3.328
 20
44599.871
 30
0
 11
-3.328
 21
44606.526
 31
0
  0
LINE
  8
0
 62
7
 10
-3.328
 20
44606.526
 30
0
 11
3.328
 21
44606.526
 31
0
  0
LINE
  8
0
 62
7
 10
3.328
 20
44606.526
 30
0
 11
3.328
 21
44599.871
 31
0
  0
LINE
  8
0
 62
7
 10
3.328
 20
44599.871
 30
0
 11
-3.328
 21
44599.871
 31
0
  0
LINE
  8
0
 62
7
 10
539.582
 20
44646.672
 30
0
 11
539.582
 21
44653.328
 31
0
  0
LINE
  8
0
 62
7
 10
539.582
 20
44653.328
 30
0
 11
546.238
 21
44653.328
 31
0
  0
LINE
  8
0
 62
7
 10
546.238
 20
44653.328
 30
0
 11
546.238
 21
44646.672
 31
0
  0
LINE
  8
0
 62
7
 10
546.238
 20
44646.672
 30
0
 11
539.582
 21
44646.672
 31
0
  0
LINE
  8
0
 62
7
 10
744.962
 20
44697.473
 30
0
 11
744.962
 21
44704.128
 31
0
  0
LINE
  8
0
 62
7
 10
744.962
 20
44704.128
 30
0
 11
751.618
 21
44704.128
 31
0
  0
LINE
  8
0
 62
7
 10
751.618
 20
44704.128
 30
0
 11
751.618
 21
44697.473
 31
0
  0
LINE
  8
0
 62
7
 10
751.618
 20
44697.473
 30
0
 11
744.962
 21
44697.473
 31
0
  0
LINE
  8
0
 62
7
 10
789.292
 20
44697.473
 30
0
 11
789.292
 21
44704.128
 31
0
  0
LINE
  8
0
 62
7
 10
789.292
 20
44704.128
 30
0
 11
795.948
 21
44704.128
 31
0
  0
LINE
  8
0
 62
7
 10
795.948
 20
44704.128
 30
0
 11
795.948
 21
44697.473
 31
0
  0
LINE
  8
0
 62
7
 10
795.948
 20
44697.473
 30
0
 11
789.292
 21
44697.473
 31
0
  0
LINE
  8
0
 62
7
 10
826.292
 20
44745.872
 30
0
 11
826.292
 21
44752.527
 31
0
  0
LINE
  8
0
 62
7
 10
826.292
 20
44752.527
 30
0
 11
832.948
 21
44752.527
 31
0
  0
LINE
  8
0
 62
7
 10
832.948
 20
44752.527
 30
0
 11
832.948
 21
44745.872
 31
0
  0
LINE
  8
0
 62
7
 10
832.948
 20
44745.872
 30
0
 11
826.292
 21
44745.872
 31
0
  0
LINE
  8
0
 62
7
 10
860.292
 20
44745.872
 30
0
 11
860.292
 21
44752.527
 31
0
  0
LINE
  8
0
 62
7
 10
860.292
 20
44752.527
 30
0
 11
866.948
 21
44752.527
 31
0
  0
LINE
  8
0
 62
7
 10
866.948
 20
44752.527
 30
0
 11
866.948
 21
44745.872
 31
0
  0
LINE
  8
0
 62
7
 10
866.948
 20
44745.872
 30
0
 11
860.292
 21
44745.872
 31
0
  0
LINE
  8
0
 62
7
 10
996.512
 20
44779.075
 30
0
 11
996.512
 21
44785.730
 31
0
  0
LINE
  8
0
 62
7
 10
996.512
 20
44785.730
 30
0
 11
1003.168
 21
44785.730
 31
0
  0
LINE
  8
0
 62
7
 10
1003.168
 20
44785.730
 30
0
 11
1003.168
 21
44779.075
 31
0
  0
LINE
  8
0
 62
7
 10
1003.168
 20
44779.075
 30
0
 11
996.512
 21
44779.075
 31
0
  0
LINE
  8
0
 62
7
 10
1243.252
 20
44903.674
 30
0
 11
1243.252
 21
44910.330
 31
0
  0
LINE
  8
0
 62
7
 10
1243.252
 20
44910.330
 30
0
 11
1249.908
 21
44910.330
 31
0
  0
LINE
  8
0
 62
7
 10
1249.908
 20
44910.330
 30
0
 11
1249.908
 21
44903.674
 31
0
  0
LINE
  8
0
 62
7
 10
1249.908
 20
44903.674
 30
0
 11
1243.252
 21
44903.674
 31
0
  0
LINE
  8
0
 62
7
 10
1259.302
 20
44871.272
 30
0
 11
1259.302
 21
44877.927
 31
0
  0
LINE
  8
0
 62
7
 10
1259.302
 20
44877.927
 30
0
 11
1265.958
 21
44877.927
 31
0
  0
LINE
  8
0
 62
7
 10
1265.958
 20
44877.927
 30
0
 11
1265.958
 21
44871.272
 31
0
  0
LINE
  8
0
 62
7
 10
1265.958
 20
44871.272
 30
0
 11
1259.302
 21
44871.272
 31
0
  0
LINE
  8
0
 62
7
 10
1435.342
 20
44930.671
 30
0
 11
1435.342
 21
44937.327
 31
0
  0
LINE
  8
0
 62
7
 10
1435.342
 20
44937.327
 30
0
 11
1441.998
 21
44937.327
 31
0
  0
LINE
  8
0
 62
7
 10
1441.998
 20
44937.327
 30
0
 11
1441.998
 21
44930.671
 31
0
  0
LINE
  8
0
 62
7
 10
1441.998
 20
44930.671
 30
0
 11
1435.342
 21
44930.671
 31
0
  0
LINE
  8
0
 62
7
 10
1573.032
 20
44973.274
 30
0
 11
1573.032
 21
44979.929
 31
0
  0
LINE
  8
0
 62
7
 10
1573.032
 20
44979.929
 30
0
 11
1579.688
 21
44979.929
 31
0
  0
LINE
  8
0
 62
7
 10
1579.688
 20
44979.929
 30
0
 11
1579.688
 21
44973.274
 31
0
  0
LINE
  8
0
 62
7
 10
1579.688
 20
44973.274
 30
0
 11
1573.032
 21
44973.274
 31
0
  0
LINE
  8
0
 62
7
 10
1649.842
 20
44981.072
 30
0
 11
1649.842
 21
44987.727
 31
0
  0
LINE
  8
0
 62
7
 10
1649.842
 20
44987.727
 30
0
 11
1656.498
 21
44987.727
 31
0
  0
LINE
  8
0
 62
7
 10
1656.498
 20
44987.727
 30
0
 11
1656.498
 21
44981.072
 31
0
  0
LINE
  8
0
 62
7
 10
1656.498
 20
44981.072
 30
0
 11
1649.842
 21
44981.072
 31
0
  0
LINE
  8
0
 62
7
 10
1768.512
 20
45030.872
 30
0
 11
1768.512
 21
45037.527
 31
0
  0
LINE
  8
0
 62
7
 10
1768.512
 20
45037.527
 30
0
 11
1775.168
 21
45037.527
 31
0
  0
LINE
  8
0
 62
7
 10
1775.168
 20
45037.527
 30
0
 11
1775.168
 21
45030.872
 31
0
  0
LINE
  8
0
 62
7
 10
1775.168
 20
45030.872
 30
0
 11
1768.512
 21
45030.872
 31
0
  0
LINE
  8
0
 62
7
 10
2061.852
 20
45262.273
 30
0
 11
2061.852
 21
45268.928
 31
0
  0
LINE
  8
0
 62
7
 10
2061.852
 20
45268.928
 30
0
 11
2068.508
 21
45268.928
 31
0
  0
LINE
  8
0
 62
7
 10
2068.508
 20
45268.928
 30
0
 11
2068.508
 21
45262.273
 31
0
  0
LINE
  8
0
 62
7
 10
2068.508
 20
45262.273
 30
0
 11
2061.852
 21
45262.273
 31
0
  0
LINE
  8
0
 62
7
 10
2114.722
 20
45278.474
 30
0
 11
2114.722
 21
45285.129
 31
0
  0
LINE
  8
0
 62
7
 10
2114.722
 20
45285.129
 30
0
 11
2121.378
 21
45285.129
 31
0
  0
LINE
  8
0
 62
7
 10
2121.378
 20
45285.129
 30
0
 11
2121.378
 21
45278.474
 31
0
  0
LINE
  8
0
 62
7
 10
2121.378
 20
45278.474
 30
0
 11
2114.722
 21
45278.474
 31
0
  0
LINE
  8
0
 62
7
 10
2217.692
 20
45308.674
 30
0
 11
2217.692
 21
45315.330
 31
0
  0
LINE
  8
0
 62
7
 10
2217.692
 20
45315.330
 30
0
 11
2224.348
 21
45315.330
 31
0
  0
LINE
  8
0
 62
7
 10
2224.348
 20
45315.330
 30
0
 11
2224.348
 21
45308.674
 31
0
  0
LINE
  8
0
 62
7
 10
2224.348
 20
45308.674
 30
0
 11
2217.692
 21
45308.674
 31
0
  0
LINE
  8
0
 62
7
 10
2397.382
 20
45379.670
 30
0
 11
2397.382
 21
45386.326
 31
0
  0
LINE
  8
0
 62
7
 10
2397.382
 20
45386.326
 30
0
 11
2404.038
 21
45386.326
 31
0
  0
LINE
  8
0
 62
7
 10
2404.038
 20
45386.326
 30
0
 11
2404.038
 21
45379.670
 31
0
  0
LINE
  8
0
 62
7
 10
2404.038
 20
45379.670
 30
0
 11
2397.382
 21
45379.670
 31
0
  0
LINE
  8
0
 62
7
 10
2475.412
 20
45452.073
 30
0
 11
2475.412
 21
45458.728
 31
0
  0
LINE
  8
0
 62
7
 10
2475.412
 20
45458.728
 30
0
 11
2482.068
 21
45458.728
 31
0
  0
LINE
  8
0
 62
7
 10
2482.068
 20
45458.728
 30
0
 11
2482.068
 21
45452.073
 31
0
  0
LINE
  8
0
 62
7
 10
2482.068
 20
45452.073
 30
0
 11
2475.412
 21
45452.073
 31
0
  0
LINE
  8
0
 62
7
 10
2540.012
 20
45452.073
 30
0
 11
2540.012
 21
45458.728
 31
0
  0
LINE
  8
0
 62
7
 10
2540.012
 20
45458.728
 30
0
 11
2546.668
 21
45458.728
 31
0
  0
LINE
  8
0
 62
7
 10
2546.668
 20
45458.728
 30
0
 11
2546.668
 21
45452.073
 31
0
  0
LINE
  8
0
 62
7
 10
2546.668
 20
45452.073
 30
0
 11
2540.012
 21
45452.073
 31
0
  0
LINE
  8
0
 62
7
 10
2588.012
 20
45507.473
 30
0
 11
2588.012
 21
45514.128
 31
0
  0
LINE
  8
0
 62
7
 10
2588.012
 20
45514.128
 30
0
 11
2594.668
 21
45514.128
 31
0
  0
LINE
  8
0
 62
7
 10
2594.668
 20
45514.128
 30
0
 11
2594.668
 21
45507.473
 31
0
  0
LINE
  8
0
 62
7
 10
2594.668
 20
45507.473
 30
0
 11
2588.012
 21
45507.473
 31
0
  0
LINE
  8
0
 62
7
 10
2638.012
 20
45507.473
 30
0
 11
2638.012
 21
45514.128
 31
0
  0
LINE
  8
0
 62
7
 10
2638.012
 20
45514.128
 30
0
 11
2644.668
 21
45514.128
 31
0
  0
LINE
  8
0
 62
7
 10
2644.668
 20
45514.128
 30
0
 11
2644.668
 21
45507.473
 31
0
  0
LINE
  8
0
 62
7
 10
2644.668
 20
45507.473
 30
0
 11
2638.012
 21
45507.473
 31
0
  0
LINE
  8
0
 62
7
 10
2728.052
 20
45539.670
 30
0
 11
2728.052
 21
45546.326
 31
0
  0
LINE
  8
0
 62
7
 10
2728.052
 20
45546.326
 30
0
 11
2734.708
 21
45546.326
 31
0
  0
LINE
  8
0
 62
7
 10
2734.708
 20
45546.326
 30
0
 11
2734.708
 21
45539.670
 31
0
  0
LINE
  8
0
 62
7
 10
2734.708
 20
45539.670
 30
0
 11
2728.052
 21
45539.670
 31
0
  0
LINE
  8
0
 62
7
 10
2817.172
 20
45620.872
 30
0
 11
2817.172
 21
45627.527
 31
0
  0
LINE
  8
0
 62
7
 10
2817.172
 20
45627.527
 30
0
 11
2823.828
 21
45627.527
 31
0
  0
LINE
  8
0
 62
7
 10
2823.828
 20
45627.527
 30
0
 11
2823.828
 21
45620.872
 31
0
  0
LINE
  8
0
 62
7
 10
2823.828
 20
45620.872
 30
0
 11
2817.172
 21
45620.872
 31
0
  0
LINE
  8
0
 62
7
 10
3012.982
 20
45799.075
 30
0
 11
3012.982
 21
45805.730
 31
0
  0
LINE
  8
0
 62
7
 10
3012.982
 20
45805.730
 30
0
 11
3019.638
 21
45805.730
 31
0
  0
LINE
  8
0
 62
7
 10
3019.638
 20
45805.730
 30
0
 11
3019.638
 21
45799.075
 31
0
  0
LINE
  8
0
 62
7
 10
3019.638
 20
45799.075
 30
0
 11
3012.982
 21
45799.075
 31
0
  0
LINE
  8
0
 62
7
 10
3295.932
 20
45957.874
 30
0
 11
3295.932
 21
45964.529
 31
0
  0
LINE
  8
0
 62
7
 10
3295.932
 20
45964.529
 30
0
 11
3302.588
 21
45964.529
 31
0
  0
LINE
  8
0
 62
7
 10
3302.588
 20
45964.529
 30
0
 11
3302.588
 21
45957.874
 31
0
  0
LINE
  8
0
 62
7
 10
3302.588
 20
45957.874
 30
0
 11
3295.932
 21
45957.874
 31
0
999
- - - Line Data - - -
  0
LINE
  8
0
 62
4
 10
0.000
 20
44657.109
 30
0
 11
542.910
 21
44725.210
 31
0
  0
LINE
  8
0
 62
4
 10
542.910
 20
44725.210
 30
0
 11
748.290
 21
44740.317
 31
0
  0
LINE
  8
0
 62
4
 10
748.290
 20
44740.317
 30
0
 11
795.620
 21
44784.268
 31
0
  0
LINE
  8
0
 62
4
 10
795.620
 20
44784.268
 30
0
 11
835.620
 21
44810.928
 31
0
  0
LINE
  8
0
 62
4
 10
835.620
 20
44810.928
 30
0
 11
863.620
 21
44810.928
 31
0
  0
LINE
  8
0
 62
4
 10
863.620
 20
44810.928
 30
0
 11
999.840
 21
44864.038
 31
0
  0
LINE
  8
0
 62
4
 10
999.840
 20
44864.038
 30
0
 11
1246.580
 21
44932.134
 31
0
  0
LINE
  8
0
 62
4
 10
1246.580
 20
44932.134
 30
0
 11
1262.630
 21
44938.892
 31
0
  0
LINE
  8
0
 62
4
 10
1262.630
 20
44938.892
 30
0
 11
1438.670
 21
44997.393
 31
0
  0
LINE
  8
0
 62
4
 10
1438.670
 20
44997.393
 30
0
 11
1576.360
 21
45055.088
 31
0
  0
LINE
  8
0
 62
4
 10
1576.360
 20
45055.088
 30
0
 11
1653.170
 21
45071.694
 31
0
  0
LINE
  8
0
 62
4
 10
1653.170
 20
45071.694
 30
0
 11
1771.840
 21
45098.838
 31
0
  0
LINE
  8
0
 62
4
 10
1771.840
 20
45098.838
 30
0
 11
2065.180
 21
45323.096
 31
0
  0
LINE
  8
0
 62
4
 10
2065.180
 20
45323.096
 30
0
 11
2118.050
 21
45342.505
 31
0
  0
LINE
  8
0
 62
4
 10
2118.050
 20
45342.505
 30
0
 11
2221.020
 21
45367.559
 31
0
  0
LINE
  8
0
 62
4
 10
2221.020
 20
45367.559
 30
0
 11
2400.710
 21
45436.880
 31
0
  0
LINE
  8
0
 62
4
 10
2400.710
 20
45436.880
 30
0
 11
2478.740
 21
45510.000
 31
0
  0
LINE
  8
0
 62
4
 10
2478.740
 20
45510.000
 30
0
 11
2494.340
 21
45518.545
 31
0
  0
LINE
  8
0
 62
4
 10
2494.340
 20
45518.545
 30
0
 11
2503.940
 21
45517.900
 31
0
  0
LINE
  8
0
 62
4
 10
2503.940
 20
45517.900
 30
0
 11
2513.540
 21
45479.834
 31
0
  0
LINE
  8
0
 62
4
 10
2513.540
 20
45479.834
 30
0
 11
2523.140
 21
45482.939
 31
0
  0
LINE
  8
0
 62
4
 10
2523.140
 20
45482.939
 30
0
 11
2532.740
 21
45486.069
 31
0
  0
LINE
  8
0
 62
4
 10
2532.740
 20
45486.069
 30
0
 11
2542.340
 21
45489.253
 31
0
  0
LINE
  8
0
 62
4
 10
2542.340
 20
45489.253
 30
0
 11
2551.940
 21
45492.476
 31
0
  0
LINE
  8
0
 62
4
 10
2551.940
 20
45492.476
 30
0
 11
2561.540
 21
45495.747
 31
0
  0
LINE
  8
0
 62
4
 10
2561.540
 20
45495.747
 30
0
 11
2571.140
 21
45499.092
 31
0
  0
LINE
  8
0
 62
4
 10
2571.140
 20
45499.092
 30
0
 11
2580.740
 21
45502.524
 31
0
  0
LINE
  8
0
 62
4
 10
2580.740
 20
45502.524
 30
0
 11
2590.340
 21
45506.064
 31
0
  0
LINE
  8
0
 62
4
 10
2590.340
 20
45506.064
 30
0
 11
2599.940
 21
45509.761
 31
0
  0
LINE
  8
0
 62
4
 10
2599.940
 20
45509.761
 30
0
 11
2609.540
 21
45513.672
 31
0
  0
LINE
  8
0
 62
4
 10
2609.540
 20
45513.672
 30
0
 11
2619.140
 21
45517.949
 31
0
  0
LINE
  8
0
 62
4
 10
2619.140
 20
45517.949
 30
0
 11
2628.740
 21
45522.939
 31
0
  0
LINE
  8
0
 62
4
 10
2628.740
 20
45522.939
 30
0
 11
2638.340
 21
45532.534
 31
0
  0
LINE
  8
0
 62
4
 10
2638.340
 20
45532.534
 30
0
 11
2641.340
 21
45553.379
 31
0
  0
LINE
  8
0
 62
4
 10
2641.340
 20
45553.379
 30
0
 11
2731.380
 21
45598.896
 31
0
  0
LINE
  8
0
 62
4
 10
2731.380
 20
45598.896
 30
0
 11
2820.500
 21
45681.069
 31
0
  0
LINE
  8
0
 62
4
 10
2820.500
 20
45681.069
 30
0
 11
3016.310
 21
45806.885
 31
0
  0
LINE
  8
0
 62
4
 10
3016.310
 20
45806.885
 30
0
 11
3299.260
 21
46019.692
 31
0
999
- - - Line Data - - -
  0
LINE
  8
0
 62
4
 10
0.000
 20
44666.030
 30
0
 11
542.910
 21
44737.300
 31
0
  0
LINE
  8
0
 62
4
 10
542.910
 20
44737.300
 30
0
 11
748.290
 21
44751.797
 31
0
  0
LINE
  8
0
 62
4
 10
748.290
 20
44751.797
 30
0
 11
795.620
 21
44790.405
 31
0
  0
LINE
  8
0
 62
4
 10
795.620
 20
44790.405
 30
0
 11
835.620
 21
44819.946
 31
0
  0
LINE
  8
0
 62
4
 10
835.620
 20
44819.946
 30
0
 11
863.620
 21
44819.946
 31
0
  0
LINE
  8
0
 62
4
 10
863.620
 20
44819.946
 30
0
 11
999.840
 21
44870.469
 31
0
  0
LINE
  8
0
 62
4
 10
999.840
 20
44870.469
 30
0
 11
1246.580
 21
44937.480
 31
0
  0
LINE
  8
0
 62
4
 10
1246.580
 20
44937.480
 30
0
 11
1262.630
 21
44943.223
 31
0
  0
LINE
  8
0
 62
4
 10
1262.630
 20
44943.223
 30
0
 11
1438.670
 21
45017.461
 31
0
  0
LINE
  8
0
 62
4
 10
1438.670
 20
45017.461
 30
0
 11
1576.360
 21
45080.884
 31
0
  0
LINE
  8
0
 62
4
 10
1576.360
 20
45080.884
 30
0
 11
1653.170
 21
45100.361
 31
0
  0
LINE
  8
0
 62
4
 10
1653.170
 20
45100.361
 30
0
 11
1771.840
 21
45138.896
 31
0
  0
LINE
  8
0
 62
4
 10
1771.840
 20
45138.896
 30
0
 11
2065.180
 21
45350.425
 31
0
  0
LINE
  8
0
 62
4
 10
2065.180
 20
45350.425
 30
0
 11
2118.050
 21
45371.265
 31
0
  0
LINE
  8
0
 62
4
 10
2118.050
 20
45371.265
 30
0
 11
2221.020
 21
45388.164
 31
0
  0
LINE
  8
0
 62
4
 10
2221.020
 20
45388.164
 30
0
 11
2400.710
 21
45462.305
 31
0
  0
LINE
  8
0
 62
4
 10
2400.710
 20
45462.305
 30
0
 11
2478.740
 21
45548.926
 31
0
  0
LINE
  8
0
 62
4
 10
2478.740
 20
45548.926
 30
0
 11
2494.340
 21
45530.601
 31
0
  0
LINE
  8
0
 62
4
 10
2494.340
 20
45530.601
 30
0
 11
2503.940
 21
45533.442
 31
0
  0
LINE
  8
0
 62
4
 10
2503.940
 20
45533.442
 30
0
 11
2513.540
 21
45536.279
 31
0
  0
LINE
  8
0
 62
4
 10
2513.540
 20
45536.279
 30
0
 11
2523.140
 21
45539.121
 31
0
  0
LINE
  8
0
 62
4
 10
2523.140
 20
45539.121
 30
0
 11
2532.740
 21
45541.958
 31
0
  0
LINE
  8
0
 62
4
 10
2532.740
 20
45541.958
 30
0
 11
2542.340
 21
45544.800
 31
0
  0
LINE
  8
0
 62
4
 10
2542.340
 20
45544.800
 30
0
 11
2551.940
 21
45547.642
 31
0
  0
LINE
  8
0
 62
4
 10
2551.940
 20
45547.642
 30
0
 11
2561.540
 21
45550.479
 31
0
  0
LINE
  8
0
 62
4
 10
2561.540
 20
45550.479
 30
0
 11
2571.140
 21
45553.320
 31
0
  0
LINE
  8
0
 62
4
 10
2571.140
 20
45553.320
 30
0
 11
2580.740
 21
45556.157
 31
0
  0
LINE
  8
0
 62
4
 10
2580.740
 20
45556.157
 30
0
 11
2590.340
 21
45558.999
 31
0
  0
LINE
  8
0
 62
4
 10
2590.340
 20
45558.999
 30
0
 11
2599.940
 21
45561.841
 31
0
  0
LINE
  8
0
 62
4
 10
2599.940
 20
45561.841
 30
0
 11
2609.540
 21
45564.678
 31
0
  0
LINE
  8
0
 62
4
 10
2609.540
 20
45564.678
 30
0
 11
2619.140
 21
45567.520
 31
0
  0
LINE
  8
0
 62
4
 10
2619.140
 20
45567.520
 30
0
 11
2628.740
 21
45570.356
 31
0
  0
LINE
  8
0
 62
4
 10
2628.740
 20
45570.356
 30
0
 11
2638.340
 21
45573.198
 31
0
  0
LINE
  8
0
 62
4
 10
2638.340
 20
45573.198
 30
0
 11
2641.340
 21
45624.321
 31
0
  0
LINE
  8
0
 62
4
 10
2641.340
 20
45624.321
 30
0
 11
2731.380
 21
45638.110
 31
0
  0
LINE
  8
0
 62
4
 10
2731.380
 20
45638.110
 30
0
 11
2820.500
 21
45714.346
 31
0
  0
LINE
  8
0
 62
4
 10
2820.500
 20
45714.346
 30
0
 11
3016.310
 21
45827.891
 31
0
  0
LINE
  8
0
 62
4
 10
3016.310
 20
45827.891
 30
0
 11
3299.260
 21
46047.417
 31
0
999
- - - Symbol Data - - -
  0
LINE
  8
0
 62
4
 10
-3.328
 20
44663.812
 30
0
 11
3.328
 21
44663.812
 31
0
  0
LINE
  8
0
 62
4
 10
0.000
 20
44670.467
 30
0
 11
3.328
 21
44663.812
 31
0
  0
LINE
  8
0
 62
4
 10
0.000
 20
44670.467
 30
0
 11
-3.328
 21
44663.812
 31
0
  0
LINE
  8
0
 62
4
 10
539.582
 20
44735.081
 30
0
 11
546.238
 21
44735.081
 31
0
  0
LINE
  8
0
 62
4
 10
542.910
 20
44741.737
 30
0
 11
546.238
 21
44735.081
 31
0
  0
LINE
  8
0
 62
4
 10
542.910
 20
44741.737
 30
0
 11
539.582
 21
44735.081
 31
0
  0
LINE
  8
0
 62
4
 10
744.962
 20
44749.579
 30
0
 11
751.618
 21
44749.579
 31
0
  0
LINE
  8
0
 62
4
 10
748.290
 20
44756.234
 30
0
 11
751.618
 21
44749.579
 31
0
  0
LINE
  8
0
 62
4
 10
748.290
 20
44756.234
 30
0
 11
744.962
 21
44749.579
 31
0
  0
LINE
  8
0
 62
4
 10
792.292
 20
44788.187
 30
0
 11
798.948
 21
44788.187
 31
0
  0
LINE
  8
0
 62
4
 10
795.620
 20
44794.842
 30
0
 11
798.948
 21
44788.187
 31
0
  0
LINE
  8
0
 62
4
 10
795.620
 20
44794.842
 30
0
 11
792.292
 21
44788.187
 31
0
  0
LINE
  8
0
 62
4
 10
832.292
 20
44817.728
 30
0
 11
838.948
 21
44817.728
 31
0
  0
LINE
  8
0
 62
4
 10
835.620
 20
44824.383
 30
0
 11
838.948
 21
44817.728
 31
0
  0
LINE
  8
0
 62
4
 10
835.620
 20
44824.383
 30
0
 11
832.292
 21
44817.728
 31
0
  0
LINE
  8
0
 62
4
 10
860.292
 20
44817.728
 30
0
 11
866.948
 21
44817.728
 31
0
  0
LINE
  8
0
 62
4
 10
863.620
 20
44824.383
 30
0
 11
866.948
 21
44817.728
 31
0
  0
LINE
  8
0
 62
4
 10
863.620
 20
44824.383
 30
0
 11
860.292
 21
44817.728
 31
0
  0
LINE
  8
0
 62
4
 10
996.512
 20
44868.250
 30
0
 11
1003.168
 21
44868.250
 31
0
  0
LINE
  8
0
 62
4
 10
999.840
 20
44874.905
 30
0
 11
1003.168
 21
44868.250
 31
0
  0
LINE
  8
0
 62
4
 10
999.840
 20
44874.905
 30
0
 11
996.512
 21
44868.250
 31
0
  0
LINE
  8
0
 62
4
 10
1243.252
 20
44935.262
 30
0
 11
1249.908
 21
44935.262
 31
0
  0
LINE
  8
0
 62
4
 10
1246.580
 20
44941.917
 30
0
 11
1249.908
 21
44935.262
 31
0
  0
LINE
  8
0
 62
4
 10
1246.580
 20
44941.917
 30
0
 11
1243.252
 21
44935.262
 31
0
  0
LINE
  8
0
 62
4
 10
1259.302
 20
44941.004
 30
0
 11
1265.958
 21
44941.004
 31
0
  0
LINE
  8
0
 62
4
 10
1262.630
 20
44947.659
 30
0
 11
1265.958
 21
44941.004
 31
0
  0
LINE
  8
0
 62
4
 10
1262.630
 20
44947.659
 30
0
 11
1259.302
 21
44941.004
 31
0
  0
LINE
  8
0
 62
4
 10
1435.342
 20
45015.243
 30
0
 11
1441.998
 21
45015.243
 31
0
  0
LINE
  8
0
 62
4
 10
1438.670
 20
45021.898
 30
0
 11
1441.998
 21
45015.243
 31
0
  0
LINE
  8
0
 62
4
 10
1438.670
 20
45021.898
 30
0
 11
1435.342
 21
45015.243
 31
0
  0
LINE
  8
0
 62
4
 10
1573.032
 20
45078.665
 30
0
 11
1579.688
 21
45078.665
 31
0
  0
LINE
  8
0
 62
4
 10
1576.360
 20
45085.321
 30
0
 11
1579.688
 21
45078.665
 31
0
  0
LINE
  8
0
 62
4
 10
1576.360
 20
45085.321
 30
0
 11
1573.032
 21
45078.665
 31
0
  0
LINE
  8
0
 62
4
 10
1649.842
 20
45098.143
 30
0
 11
1656.498
 21
45098.143
 31
0
  0
LINE
  8
0
 62
4
 10
1653.170
 20
45104.798
 30
0
 11
1656.498
 21
45098.143
 31
0
  0
LINE
  8
0
 62
4
 10
1653.170
 20
45104.798
 30
0
 11
1649.842
 21
45098.143
 31
0
  0
LINE
  8
0
 62
4
 10
1768.512
 20
45136.678
 30
0
 11
1775.168
 21
45136.678
 31
0
  0
LINE
  8
0
 62
4
 10
1771.840
 20
45143.333
 30
0
 11
1775.168
 21
45136.678
 31
0
  0
LINE
  8
0
 62
4
 10
1771.840
 20
45143.333
 30
0
 11
1768.512
 21
45136.678
 31
0
  0
LINE
  8
0
 62
4
 10
2061.852
 20
45348.206
 30
0
 11
2068.508
 21
45348.206
 31
0
  0
LINE
  8
0
 62
4
 10
2065.180
 20
45354.862
 30
0
 11
2068.508
 21
45348.206
 31
0
  0
LINE
  8
0
 62
4
 10
2065.180
 20
45354.862
 30
0
 11
2061.852
 21
45348.206
 31
0
  0
LINE
  8
0
 62
4
 10
2114.722
 20
45369.046
 30
0
 11
2121.378
 21
45369.046
 31
0
  0
LINE
  8
0
 62
4
 10
2118.050
 20
45375.701
 30
0
 11
2121.378
 21
45369.046
 31
0
  0
LINE
  8
0
 62
4
 10
2118.050
 20
45375.701
 30
0
 11
2114.722
 21
45369.046
 31
0
  0
LINE
  8
0
 62
4
 10
2217.692
 20
45385.946
 30
0
 11
2224.348
 21
45385.946
 31
0
  0
LINE
  8
0
 62
4
 10
2221.020
 20
45392.601
 30
0
 11
2224.348
 21
45385.946
 31
0
  0
LINE
  8
0
 62
4
 10
2221.020
 20
45392.601
 30
0
 11
2217.692
 21
45385.946
 31
0
  0
LINE
  8
0
 62
4
 10
2397.382
 20
45460.086
 30
0
 11
2404.038
 21
45460.086
 31
0
  0
LINE
  8
0
 62
4
 10
2400.710
 20
45466.741
 30
0
 11
2404.038
 21
45460.086
 31
0
  0
LINE
  8
0
 62
4
 10
2400.710
 20
45466.741
 30
0
 11
2397.382
 21
45460.086
 31
0
  0
LINE
  8
0
 62
4
 10
2475.412
 20
45546.707
 30
0
 11
2482.068
 21
45546.707
 31
0
  0
LINE
  8
0
 62
4
 10
2478.740
 20
45553.363
 30
0
 11
2482.068
 21
45546.707
 31
0
  0
LINE
  8
0
 62
4
 10
2478.740
 20
45553.363
 30
0
 11
2475.412
 21
45546.707
 31
0
  0
LINE
  8
0
 62
4
 10
2491.012
 20
45528.382
 30
0
 11
2497.668
 21
45528.382
 31
0
  0
LINE
  8
0
 62
4
 10
2494.340
 20
45535.037
 30
0
 11
2497.668
 21
45528.382
 31
0
  0
LINE
  8
0
 62
4
 10
2494.340
 20
45535.037
 30
0
 11
2491.012
 21
45528.382
 31
0
  0
LINE
  8
0
 62
4
 10
2500.612
 20
45531.224
 30
0
 11
2507.268
 21
45531.224
 31
0
  0
LINE
  8
0
 62
4
 10
2503.940
 20
45537.879
 30
0
 11
2507.268
 21
45531.224
 31
0
  0
LINE
  8
0
 62
4
 10
2503.940
 20
45537.879
 30
0
 11
2500.612
 21
45531.224
 31
0
  0
LINE
  8
0
 62
4
 10
2510.212
 20
45534.061
 30
0
 11
2516.868
 21
45534.061
 31
0
  0
LINE
  8
0
 62
4
 10
2513.540
 20
45540.716
 30
0
 11
2516.868
 21
45534.061
 31
0
  0
LINE
  8
0
 62
4
 10
2513.540
 20
45540.716
 30
0
 11
2510.212
 21
45534.061
 31
0
  0
LINE
  8
0
 62
4
 10
2519.812
 20
45536.903
 30
0
 11
2526.468
 21
45536.903
 31
0
  0
LINE
  8
0
 62
4
 10
2523.140
 20
45543.558
 30
0
 11
2526.468
 21
45536.903
 31
0
  0
LINE
  8
0
 62
4
 10
2523.140
 20
45543.558
 30
0
 11
2519.812
 21
45536.903
 31
0
  0
LINE
  8
0
 62
4
 10
2529.412
 20
45539.740
 30
0
 11
2536.068
 21
45539.740
 31
0
  0
LINE
  8
0
 62
4
 10
2532.740
 20
45546.395
 30
0
 11
2536.068
 21
45539.740
 31
0
  0
LINE
  8
0
 62
4
 10
2532.740
 20
45546.395
 30
0
 11
2529.412
 21
45539.740
 31
0
  0
LINE
  8
0
 62
4
 10
2539.012
 20
45542.581
 30
0
 11
2545.668
 21
45542.581
 31
0
  0
LINE
  8
0
 62
4
 10
2542.340
 20
45549.237
 30
0
 11
2545.668
 21
45542.581
 31
0
  0
LINE
  8
0
 62
4
 10
2542.340
 20
45549.237
 30
0
 11
2539.012
 21
45542.581
 31
0
  0
LINE
  8
0
 62
4
 10
2548.612
 20
45545.423
 30
0
 11
2555.268
 21
45545.423
 31
0
  0
LINE
  8
0
 62
4
 10
2551.940
 20
45552.078
 30
0
 11
2555.268
 21
45545.423
 31
0
  0
LINE
  8
0
 62
4
 10
2551.940
 20
45552.078
 30
0
 11
2548.612
 21
45545.423
 31
0
  0
LINE
  8
0
 62
4
 10
2558.212
 20
45548.260
 30
0
 11
2564.868
 21
45548.260
 31
0
  0
LINE
  8
0
 62
4
 10
2561.540
 20
45554.915
 30
0
 11
2564.868
 21
45548.260
 31
0
  0
LINE
  8
0
 62
4
 10
2561.540
 20
45554.915
 30
0
 11
2558.212
 21
45548.260
 31
0
  0
LINE
  8
0
 62
4
 10
2567.812
 20
45551.102
 30
0
 11
2574.468
 21
45551.102
 31
0
  0
LINE
  8
0
 62
4
 10
2571.140
 20
45557.757
 30
0
 11
2574.468
 21
45551.102
 31
0
  0
LINE
  8
0
 62
4
 10
2571.140
 20
45557.757
 30
0
 11
2567.812
 21
45551.102
 31
0
  0
LINE
  8
0
 62
4
 10
2577.412
 20
45553.939
 30
0
 11
2584.068
 21
45553.939
 31
0
  0
LINE
  8
0
 62
4
 10
2580.740
 20
45560.594
 30
0
 11
2584.068
 21
45553.939
 31
0
  0
LINE
  8
0
 62
4
 10
2580.740
 20
45560.594
 30
0
 11
2577.412
 21
45553.939
 31
0
  0
LINE
  8
0
 62
4
 10
2587.012
 20
45556.781
 30
0
 11
2593.668
 21
45556.781
 31
0
  0
LINE
  8
0
 62
4
 10
2590.340
 20
45563.436
 30
0
 11
2593.668
 21
45556.781
 31
0
  0
LINE
  8
0
 62
4
 10
2590.340
 20
45563.436
 30
0
 11
2587.012
 21
45556.781
 31
0
  0
LINE
  8
0
 62
4
 10
2596.612
 20
45559.622
 30
0
 11
2603.268
 21
45559.622
 31
0
  0
LINE
  8
0
 62
4
 10
2599.940
 20
45566.278
 30
0
 11
2603.268
 21
45559.622
 31
0
  0
LINE
  8
0
 62
4
 10
2599.940
 20
45566.278
 30
0
 11
2596.612
 21
45559.622
 31
0
  0
LINE
  8
0
 62
4
 10
2606.212
 20
45562.459
 30
0
 11
2612.868
 21
45562.459
 31
0
  0
LINE
  8
0
 62
4
 10
2609.540
 20
45569.114
 30
0
 11
2612.868
 21
45562.459
 31
0
  0
LINE
  8
0
 62
4
 10
2609.540
 20
45569.114
 30
0
 11
2606.212
 21
45562.459
 31
0
  0
LINE
  8
0
 62
4
 10
2615.812
 20
45565.301
 30
0
 11
2622.468
 21
45565.301
 31
0
  0
LINE
  8
0
 62
4
 10
2619.140
 20
45571.956
 30
0
 11
2622.468
 21
45565.301
 31
0
  0
LINE
  8
0
 62
4
 10
2619.140
 20
45571.956
 30
0
 11
2615.812
 21
45565.301
 31
0
  0
LINE
  8
0
 62
4
 10
2625.412
 20
45568.138
 30
0
 11
2632.068
 21
45568.138
 31
0
  0
LINE
  8
0
 62
4
 10
2628.740
 20
45574.793
 30
0
 11
2632.068
 21
45568.138
 31
0
  0
LINE
  8
0
 62
4
 10
2628.740
 20
45574.793
 30
0
 11
2625.412
 21
45568.138
 31
0
  0
LINE
  8
0
 62
4
 10
2635.012
 20
45570.980
 30
0
 11
2641.668
 21
45570.980
 31
0
  0
LINE
  8
0
 62
4
 10
2638.340
 20
45577.635
 30
0
 11
2641.668
 21
45570.980
 31
0
  0
LINE
  8
0
 62
4
 10
2638.340
 20
45577.635
 30
0
 11
2635.012
 21
45570.980
 31
0
  0
LINE
  8
0
 62
4
 10
2638.012
 20
45622.103
 30
0
 11
2644.668
 21
45622.103
 31
0
  0
LINE
  8
0
 62
4
 10
2641.340
 20
45628.758
 30
0
 11
2644.668
 21
45622.103
 31
0
  0
LINE
  8
0
 62
4
 10
2641.340
 20
45628.758
 30
0
 11
2638.012
 21
45622.103
 31
0
  0
LINE
  8
0
 62
4
 10
2728.052
 20
45635.892
 30
0
 11
2734.708
 21
45635.892
 31
0
  0
LINE
  8
0
 62
4
 10
2731.380
 20
45642.547
 30
0
 11
2734.708
 21
45635.892
 31
0
  0
LINE
  8
0
 62
4
 10
2731.380
 20
45642.547
 30
0
 11
2728.052
 21
45635.892
 31
0
  0
LINE
  8
0
 62
4
 10
2817.172
 20
45712.127
 30
0
 11
2823.828
 21
45712.127
 31
0
  0
LINE
  8
0
 62
4
 10
2820.500
 20
45718.782
 30
0
 11
2823.828
 21
45712.127
 31
0
  0
LINE
  8
0
 62
4
 10
2820.500
 20
45718.782
 30
0
 11
2817.172
 21
45712.127
 31
0
  0
LINE
  8
0
 62
4
 10
3012.982
 20
45825.672
 30
0
 11
3019.638
 21
45825.672
 31
0
  0
LINE
  8
0
 62
4
 10
3016.310
 20
45832.327
 30
0
 11
3019.638
 21
45825.672
 31
0
  0
LINE
  8
0
 62
4
 10
3016.310
 20
45832.327
 30
0
 11
3012.982
 21
45825.672
 31
0
  0
LINE
  8
0
 62
4
 10
3295.932
 20
46045.199
 30
0
 11
3302.588
 21
46045.199
 31
0
  0
LINE
  8
0
 62
4
 10
3299.260
 20
46051.854
 30
0
 11
3302.588
 21
46045.199
 31
0
  0
LINE
  8
0
 62
4
 10
3299.260
 20
46051.854
 30
0
 11
3295.932
 21
46045.199
 31
0
999
- - - Line Data - - -
  0
LINE
  8
0
 62
4
 10
0.000
 20
44666.831
 30
0
 11
542.910
 21
44738.315
 31
0
  0
LINE
  8
0
 62
4
 10
542.910
 20
44738.315
 30
0
 11
748.290
 21
44752.720
 31
0
  0
LINE
  8
0
 62
4
 10
748.290
 20
44752.720
 30
0
 11
795.620
 21
44790.791
 31
0
  0
LINE
  8
0
 62
4
 10
795.620
 20
44790.791
 30
0
 11
835.620
 21
44820.234
 31
0
  0
LINE
  8
0
 62
4
 10
835.620
 20
44820.234
 30
0
 11
863.620
 21
44820.234
 31
0
  0
LINE
  8
0
 62
4
 10
863.620
 20
44820.234
 30
0
 11
999.840
 21
44871.260
 31
0
  0
LINE
  8
0
 62
4
 10
999.840
 20
44871.260
 30
0
 11
1246.580
 21
44937.861
 31
0
  0
LINE
  8
0
 62
4
 10
1246.580
 20
44937.861
 30
0
 11
1262.630
 21
44943.633
 31
0
  0
LINE
  8
0
 62
4
 10
1262.630
 20
44943.633
 30
0
 11
1438.670
 21
45020.801
 31
0
  0
LINE
  8
0
 62
4
 10
1438.670
 20
45020.801
 30
0
 11
1576.360
 21
45086.152
 31
0
  0
LINE
  8
0
 62
4
 10
1576.360
 20
45086.152
 30
0
 11
1653.170
 21
45106.758
 31
0
  0
LINE
  8
0
 62
4
 10
1653.170
 20
45106.758
 30
0
 11
1771.840
 21
45147.583
 31
0
  0
LINE
  8
0
 62
4
 10
1771.840
 20
45147.583
 30
0
 11
2065.180
 21
45363.306
 31
0
  0
LINE
  8
0
 62
4
 10
2065.180
 20
45363.306
 30
0
 11
2118.050
 21
45386.426
 31
0
  0
LINE
  8
0
 62
4
 10
2118.050
 20
45386.426
 30
0
 11
2221.020
 21
45399.746
 31
0
  0
LINE
  8
0
 62
4
 10
2221.020
 20
45399.746
 30
0
 11
2400.710
 21
45468.521
 31
0
  0
LINE
  8
0
 62
4
 10
2400.710
 20
45468.521
 30
0
 11
2478.740
 21
45561.660
 31
0
  0
LINE
  8
0
 62
4
 10
2478.740
 20
45561.660
 30
0
 11
2494.340
 21
45660.845
 31
0
  0
LINE
  8
0
 62
4
 10
2494.340
 20
45660.845
 30
0
 11
2638.340
 21
45670.801
 31
0
  0
LINE
  8
0
 62
4
 10
2638.340
 20
45670.801
 30
0
 11
2641.340
 21
45670.801
 31
0
  0
LINE
  8
0
 62
4
 10
2641.340
 20
45670.801
 30
0
 11
2731.380
 21
45681.655
 31
0
  0
LINE
  8
0
 62
4
 10
2731.380
 20
45681.655
 30
0
 11
2820.500
 21
45721.108
 31
0
  0
LINE
  8
0
 62
4
 10
2820.500
 20
45721.108
 30
0
 11
3016.310
 21
45839.028
 31
0
  0
LINE
  8
0
 62
4
 10
3016.310
 20
45839.028
 30
0
 11
3299.260
 21
46059.663
 31
0
999
- - - Symbol Data - - -
  0
LINE
  8
0
 62
4
 10
-3.328
 20
44669.049
 30
0
 11
3.328
 21
44669.049
 31
0
  0
LINE
  8
0
 62
4
 10
0.000
 20
44662.394
 30
0
 11
3.328
 21
44669.049
 31
0
  0
LINE
  8
0
 62
4
 10
0.000
 20
44662.394
 30
0
 11
-3.328
 21
44669.049
 31
0
  0
LINE
  8
0
 62
4
 10
539.582
 20
44740.534
 30
0
 11
546.238
 21
44740.534
 31
0
  0
LINE
  8
0
 62
4
 10
542.910
 20
44733.879
 30
0
 11
546.238
 21
44740.534
 31
0
  0
LINE
  8
0
 62
4
 10
542.910
 20
44733.879
 30
0
 11
539.582
 21
44740.534
 31
0
  0
LINE
  8
0
 62
4
 10
744.962
 20
44754.938
 30
0
 11
751.618
 21
44754.938
 31
0
  0
LINE
  8
0
 62
4
 10
748.290
 20
44748.283
 30
0
 11
751.618
 21
44754.938
 31
0
  0
LINE
  8
0
 62
4
 10
748.290
 20
44748.283
 30
0
 11
744.962
 21
44754.938
 31
0
  0
LINE
  8
0
 62
4
 10
792.292
 20
44793.009
 30
0
 11
798.948
 21
44793.009
 31
0
  0
LINE
  8
0
 62
4
 10
795.620
 20
44786.354
 30
0
 11
798.948
 21
44793.009
 31
0
  0
LINE
  8
0
 62
4
 10
795.620
 20
44786.354
 30
0
 11
792.292
 21
44793.009
 31
0
  0
LINE
  8
0
 62
4
 10
832.292
 20
44822.453
 30
0
 11
838.948
 21
44822.453
 31
0
  0
LINE
  8
0
 62
4
 10
835.620
 20
44815.798
 30
0
 11
838.948
 21
44822.453
 31
0
  0
LINE
  8
0
 62
4
 10
835.620
 20
44815.798
 30
0
 11
832.292
 21
44822.453
 31
0
  0
LINE
  8
0
 62
4
 10
860.292
 20
44822.453
 30
0
 11
866.948
 21
44822.453
 31
0
  0
LINE
  8
0
 62
4
 10
863.620
 20
44815.798
 30
0
 11
866.948
 21
44822.453
 31
0
  0
LINE
  8
0
 62
4
 10
863.620
 20
44815.798
 30
0
 11
860.292
 21
44822.453
 31
0
  0
LINE
  8
0
 62
4
 10
996.512
 20
44873.478
 30
0
 11
1003.168
 21
44873.478
 31
0
  0
LINE
  8
0
 62
4
 10
999.840
 20
44866.823
 30
0
 11
1003.168
 21
44873.478
 31
0
  0
LINE
  8
0
 62
4
 10
999.840
 20
44866.823
 30
0
 11
996.512
 21
44873.478
 31
0
  0
LINE
  8
0
 62
4
 10
1243.252
 20
44940.080
 30
0
 11
1249.908
 21
44940.080
 31
0
  0
LINE
  8
0
 62
4
 10
1246.580
 20
44933.425
 30
0
 11
1249.908
 21
44940.080
 31
0
  0
LINE
  8
0
 62
4
 10
1246.580
 20
44933.425
 30
0
 11
1243.252
 21
44940.080
 31
0
  0
LINE
  8
0
 62
4
 10
1259.302
 20
44945.851
 30
0
 11
1265.958
 21
44945.851
 31
0
  0
LINE
  8
0
 62
4
 10
1262.630
 20
44939.196
 30
0
 11
1265.958
 21
44945.851
 31
0
  0
LINE
  8
0
 62
4
 10
1262.630
 20
44939.196
 30
0
 11
1259.302
 21
44945.851
 31
0
  0
LINE
  8
0
 62
4
 10
1435.342
 20
45023.019
 30
0
 11
1441.998
 21
45023.019
 31
0
  0
LINE
  8
0
 62
4
 10
1438.670
 20
45016.364
 30
0
 11
1441.998
 21
45023.019
 31
0
  0
LINE
  8
0
 62
4
 10
1438.670
 20
45016.364
 30
0
 11
1435.342
 21
45023.019
 31
0
  0
LINE
  8
0
 62
4
 10
1573.032
 20
45088.371
 30
0
 11
1579.688
 21
45088.371
 31
0
  0
LINE
  8
0
 62
4
 10
1576.360
 20
45081.716
 30
0
 11
1579.688
 21
45088.371
 31
0
  0
LINE
  8
0
 62
4
 10
1576.360
 20
45081.716
 30
0
 11
1573.032
 21
45088.371
 31
0
  0
LINE
  8
0
 62
4
 10
1649.842
 20
45108.976
 30
0
 11
1656.498
 21
45108.976
 31
0
  0
LINE
  8
0
 62
4
 10
1653.170
 20
45102.321
 30
0
 11
1656.498
 21
45108.976
 31
0
  0
LINE
  8
0
 62
4
 10
1653.170
 20
45102.321
 30
0
 11
1649.842
 21
45108.976
 31
0
  0
LINE
  8
0
 62
4
 10
1768.512
 20
45149.801
 30
0
 11
1775.168
 21
45149.801
 31
0
  0
LINE
  8
0
 62
4
 10
1771.840
 20
45143.146
 30
0
 11
1775.168
 21
45149.801
 31
0
  0
LINE
  8
0
 62
4
 10
1771.840
 20
45143.146
 30
0
 11
1768.512
 21
45149.801
 31
0
  0
LINE
  8
0
 62
4
 10
2061.852
 20
45365.524
 30
0
 11
2068.508
 21
45365.524
 31
0
  0
LINE
  8
0
 62
4
 10
2065.180
 20
45358.869
 30
0
 11
2068.508
 21
45365.524
 31
0
  0
LINE
  8
0
 62
4
 10
2065.180
 20
45358.869
 30
0
 11
2061.852
 21
45365.524
 31
0
  0
LINE
  8
0
 62
4
 10
2114.722
 20
45388.644
 30
0
 11
2121.378
 21
45388.644
 31
0
  0
LINE
  8
0
 62
4
 10
2118.050
 20
45381.989
 30
0
 11
2121.378
 21
45388.644
 31
0
  0
LINE
  8
0
 62
4
 10
2118.050
 20
45381.989
 30
0
 11
2114.722
 21
45388.644
 31
0
  0
LINE
  8
0
 62
4
 10
2217.692
 20
45401.964
 30
0
 11
2224.348
 21
45401.964
 31
0
  0
LINE
  8
0
 62
4
 10
2221.020
 20
45395.309
 30
0
 11
2224.348
 21
45401.964
 31
0
  0
LINE
  8
0
 62
4
 10
2221.020
 20
45395.309
 30
0
 11
2217.692
 21
45401.964
 31
0
  0
LINE
  8
0
 62
4
 10
2397.382
 20
45470.739
 30
0
 11
2404.038
 21
45470.739
 31
0
  0
LINE
  8
0
 62
4
 10
2400.710
 20
45464.084
 30
0
 11
2404.038
 21
45470.739
 31
0
  0
LINE
  8
0
 62
4
 10
2400.710
 20
45464.084
 30
0
 11
2397.382
 21
45470.739
 31
0
  0
LINE
  8
0
 62
4
 10
2475.412
 20
45563.879
 30
0
 11
2482.068
 21
45563.879
 31
0
  0
LINE
  8
0
 62
4
 10
2478.740
 20
45557.223
 30
0
 11
2482.068
 21
45563.879
 31
0
  0
LINE
  8
0
 62
4
 10
2478.740
 20
45557.223
 30
0
 11
2475.412
 21
45563.879
 31
0
  0
LINE
  8
0
 62
4
 10
2491.012
 20
45663.063
 30
0
 11
2497.668
 21
45663.063
 31
0
  0
LINE
  8
0
 62
4
 10
2494.340
 20
45656.408
 30
0
 11
2497.668
 21
45663.063
 31
0
  0
LINE
  8
0
 62
4
 10
2494.340
 20
45656.408
 30
0
 11
2491.012
 21
45663.063
 31
0
  0
LINE
  8
0
 62
4
 10
2635.012
 20
45673.019
 30
0
 11
2641.668
 21
45673.019
 31
0
  0
LINE
  8
0
 62
4
 10
2638.340
 20
45666.364
 30
0
 11
2641.668
 21
45673.019
 31
0
  0
LINE
  8
0
 62
4
 10
2638.340
 20
45666.364
 30
0
 11
2635.012
 21
45673.019
 31
0
  0
LINE
  8
0
 62
4
 10
2638.012
 20
45673.019
 30
0
 11
2644.668
 21
45673.019
 31
0
  0
LINE
  8
0
 62
4
 10
2641.340
 20
45666.364
 30
0
 11
2644.668
 21
45673.019
 31
0
  0
LINE
  8
0
 62
4
 10
2641.340
 20
45666.364
 30
0
 11
2638.012
 21
45673.019
 31
0
  0
LINE
  8
0
 62
4
 10
2728.052
 20
45683.874
 30
0
 11
2734.708
 21
45683.874
 31
0
  0
LINE
  8
0
 62
4
 10
2731.380
 20
45677.219
 30
0
 11
2734.708
 21
45683.874
 31
0
  0
LINE
  8
0
 62
4
 10
2731.380
 20
45677.219
 30
0
 11
2728.052
 21
45683.874
 31
0
  0
LINE
  8
0
 62
4
 10
2817.172
 20
45723.327
 30
0
 11
2823.828
 21
45723.327
 31
0
  0
LINE
  8
0
 62
4
 10
2820.500
 20
45716.672
 30
0
 11
2823.828
 21
45723.327
 31
0
  0
LINE
  8
0
 62
4
 10
2820.500
 20
45716.672
 30
0
 11
2817.172
 21
45723.327
 31
0
  0
LINE
  8
0
 62
4
 10
3012.982
 20
45841.247
 30
0
 11
3019.638
 21
45841.247
 31
0
  0
LINE
  8
0
 62
4
 10
3016.310
 20
45834.592
 30
0
 11
3019.638
 21
45841.247
 31
0
  0
LINE
  8
0
 62
4
 10
3016.310
 20
45834.592
 30
0
 11
3012.982
 21
45841.247
 31
0
  0
LINE
  8
0
 62
4
 10
3295.932
 20
46061.881
 30
0
 11
3302.588
 21
46061.881
 31
0
  0
LINE
  8
0
 62
4
 10
3299.260
 20
46055.226
 30
0
 11
3302.588
 21
46061.881
 31
0
  0
LINE
  8
0
 62
4
 10
3299.260
 20
46055.226
 30
0
 11
3295.932
 21
46061.881
 31
0
999
- - - Line Data - - -
  0
LINE
  8
0
 62
4
 10
0.000
 20
44671.235
 30
0
 11
542.910
 21
44743.389
 31
0
  0
LINE
  8
0
 62
4
 10
542.910
 20
44743.389
 30
0
 11
748.290
 21
44757.397
 31
0
  0
LINE
  8
0
 62
4
 10
748.290
 20
44757.397
 30
0
 11
795.620
 21
44792.832
 31
0
  0
LINE
  8
0
 62
4
 10
795.620
 20
44792.832
 30
0
 11
835.620
 21
44823.223
 31
0
  0
LINE
  8
0
 62
4
 10
835.620
 20
44823.223
 30
0
 11
863.620
 21
44823.223
 31
0
  0
LINE
  8
0
 62
4
 10
863.620
 20
44823.223
 30
0
 11
999.840
 21
44874.570
 31
0
  0
LINE
  8
0
 62
4
 10
999.840
 20
44874.570
 30
0
 11
1246.580
 21
44940.659
 31
0
  0
LINE
  8
0
 62
4
 10
1246.580
 20
44940.659
 30
0
 11
1262.630
 21
44946.084
 31
0
  0
LINE
  8
0
 62
4
 10
1262.630
 20
44946.084
 30
0
 11
1438.670
 21
45027.344
 31
0
  0
LINE
  8
0
 62
4
 10
1438.670
 20
45027.344
 30
0
 11
1576.360
 21
45096.729
 31
0
  0
LINE
  8
0
 62
4
 10
1576.360
 20
45096.729
 30
0
 11
1653.170
 21
45119.097
 31
0
  0
LINE
  8
0
 62
4
 10
1653.170
 20
45119.097
 30
0
 11
1771.840
 21
45163.467
 31
0
  0
LINE
  8
0
 62
4
 10
1771.840
 20
45163.467
 30
0
 11
2065.180
 21
45391.699
 31
0
  0
LINE
  8
0
 62
4
 10
2065.180
 20
45391.699
 30
0
 11
2118.050
 21
45421.377
 31
0
  0
LINE
  8
0
 62
4
 10
2118.050
 20
45421.377
 30
0
 11
2221.020
 21
45431.582
 31
0
  0
LINE
  8
0
 62
4
 10
2221.020
 20
45431.582
 30
0
 11
2400.710
 21
45490.664
 31
0
  0
LINE
  8
0
 62
4
 10
2400.710
 20
45490.664
 30
0
 11
2478.740
 21
45600.586
 31
0
  0
LINE
  8
0
 62
4
 10
2478.740
 20
45600.586
 30
0
 11
2494.340
 21
45680.513
 31
0
  0
LINE
  8
0
 62
4
 10
2494.340
 20
45680.513
 30
0
 11
2638.340
 21
45692.788
 31
0
  0
LINE
  8
0
 62
4
 10
2638.340
 20
45692.788
 30
0
 11
2641.340
 21
45692.788
 31
0
  0
LINE
  8
0
 62
4
 10
2641.340
 20
45692.788
 30
0
 11
2731.380
 21
45715.464
 31
0
  0
LINE
  8
0
 62
4
 10
2731.380
 20
45715.464
 30
0
 11
2820.500
 21
45740.332
 31
0
  0
LINE
  8
0
 62
4
 10
2820.500
 20
45740.332
 30
0
 11
3016.310
 21
45861.772
 31
0
  0
LINE
  8
0
 62
4
 10
3016.310
 20
45861.772
 30
0
 11
3299.260
 21
46084.316
 31
0
999
- - - Symbol Data - - -
  0
LINE
  8
0
 62
4
 10
-3.328
 20
44667.908
 30
0
 11
3.328
 21
44674.563
 31
0
  0
LINE
  8
0
 62
4
 10
-3.328
 20
44674.563
 30
0
 11
3.328
 21
44667.908
 31
0
  0
LINE
  8
0
 62
4
 10
539.582
 20
44740.061
 30
0
 11
546.238
 21
44746.716
 31
0
  0
LINE
  8
0
 62
4
 10
539.582
 20
44746.716
 30
0
 11
546.238
 21
44740.061
 31
0
  0
LINE
  8
0
 62
4
 10
744.962
 20
44754.070
 30
0
 11
751.618
 21
44760.725
 31
0
  0
LINE
  8
0
 62
4
 10
744.962
 20
44760.725
 30
0
 11
751.618
 21
44754.070
 31
0
  0
LINE
  8
0
 62
4
 10
792.292
 20
44789.504
 30
0
 11
798.948
 21
44796.160
 31
0
  0
LINE
  8
0
 62
4
 10
792.292
 20
44796.160
 30
0
 11
798.948
 21
44789.504
 31
0
  0
LINE
  8
0
 62
4
 10
832.292
 20
44819.895
 30
0
 11
838.948
 21
44826.550
 31
0
  0
LINE
  8
0
 62
4
 10
832.292
 20
44826.550
 30
0
 11
838.948
 21
44819.895
 31
0
  0
LINE
  8
0
 62
4
 10
860.292
 20
44819.895
 30
0
 11
866.948
 21
44826.550
 31
0
  0
LINE
  8
0
 62
4
 10
860.292
 20
44826.550
 30
0
 11
866.948
 21
44819.895
 31
0
  0
LINE
  8
0
 62
4
 10
996.512
 20
44871.243
 30
0
 11
1003.168
 21
44877.898
 31
0
  0
LINE
  8
0
 62
4
 10
996.512
 20
44877.898
 30
0
 11
1003.168
 21
44871.243
 31
0
  0
LINE
  8
0
 62
4
 10
1243.252
 20
44937.332
 30
0
 11
1249.908
 21
44943.987
 31
0
  0
LINE
  8
0
 62
4
 10
1243.252
 20
44943.987
 30
0
 11
1249.908
 21
44937.332
 31
0
  0
LINE
  8
0
 62
4
 10
1259.302
 20
44942.756
 30
0
 11
1265.958
 21
44949.412
 31
0
  0
LINE
  8
0
 62
4
 10
1259.302
 20
44949.412
 30
0
 11
1265.958
 21
44942.756
 31
0
  0
LINE
  8
0
 62
4
 10
1435.342
 20
45024.016
 30
0
 11
1441.998
 21
45030.671
 31
0
  0
LINE
  8
0
 62
4
 10
1435.342
 20
45030.671
 30
0
 11
1441.998
 21
45024.016
 31
0
  0
LINE
  8
0
 62
4
 10
1573.032
 20
45093.401
 30
0
 11
1579.688
 21
45100.056
 31
0
  0
LINE
  8
0
 62
4
 10
1573.032
 20
45100.056
 30
0
 11
1579.688
 21
45093.401
 31
0
  0
LINE
  8
0
 62
4
 10
1649.842
 20
45115.769
 30
0
 11
1656.498
 21
45122.424
 31
0
  0
LINE
  8
0
 62
4
 10
1649.842
 20
45122.424
 30
0
 11
1656.498
 21
45115.769
 31
0
  0
LINE
  8
0
 62
4
 10
1768.512
 20
45160.139
 30
0
 11
1775.168
 21
45166.794
 31
0
  0
LINE
  8
0
 62
4
 10
1768.512
 20
45166.794
 30
0
 11
1775.168
 21
45160.139
 31
0
  0
LINE
  8
0
 62
4
 10
2061.852
 20
45388.372
 30
0
 11
2068.508
 21
45395.027
 31
0
  0
LINE
  8
0
 62
4
 10
2061.852
 20
45395.027
 30
0
 11
2068.508
 21
45388.372
 31
0
  0
LINE
  8
0
 62
4
 10
2114.722
 20
45418.049
 30
0
 11
2121.378
 21
45424.705
 31
0
  0
LINE
  8
0
 62
4
 10
2114.722
 20
45424.705
 30
0
 11
2121.378
 21
45418.049
 31
0
  0
LINE
  8
0
 62
4
 10
2217.692
 20
45428.254
 30
0
 11
2224.348
 21
45434.910
 31
0
  0
LINE
  8
0
 62
4
 10
2217.692
 20
45434.910
 30
0
 11
2224.348
 21
45428.254
 31
0
  0
LINE
  8
0
 62
4
 10
2397.382
 20
45487.337
 30
0
 11
2404.038
 21
45493.992
 31
0
  0
LINE
  8
0
 62
4
 10
2397.382
 20
45493.992
 30
0
 11
2404.038
 21
45487.337
 31
0
  0
LINE
  8
0
 62
4
 10
2475.412
 20
45597.258
 30
0
 11
2482.068
 21
45603.913
 31
0
  0
LINE
  8
0
 62
4
 10
2475.412
 20
45603.913
 30
0
 11
2482.068
 21
45597.258
 31
0
  0
LINE
  8
0
 62
4
 10
2491.012
 20
45677.185
 30
0
 11
2497.668
 21
45683.840
 31
0
  0
LINE
  8
0
 62
4
 10
2491.012
 20
45683.840
 30
0
 11
2497.668
 21
45677.185
 31
0
  0
LINE
  8
0
 62
4
 10
2635.012
 20
45689.461
 30
0
 11
2641.668
 21
45696.116
 31
0
  0
LINE
  8
0
 62
4
 10
2635.012
 20
45696.116
 30
0
 11
2641.668
 21
45689.461
 31
0
  0
LINE
  8
0
 62
4
 10
2638.012
 20
45689.461
 30
0
 11
2644.668
 21
45696.116
 31
0
  0
LINE
  8
0
 62
4
 10
2638.012
 20
45696.116
 30
0
 11
2644.668
 21
45689.461
 31
0
  0
LINE
  8
0
 62
4
 10
2728.052
 20
45712.136
 30
0
 11
2734.708
 21
45718.791
 31
0
  0
LINE
  8
0
 62
4
 10
2728.052
 20
45718.791
 30
0
 11
2734.708
 21
45712.136
 31
0
  0
LINE
  8
0
 62
4
 10
2817.172
 20
45737.004
 30
0
 11
2823.828
 21
45743.660
 31
0
  0
LINE
  8
0
 62
4
 10
2817.172
 20
45743.660
 30
0
 11
2823.828
 21
45737.004
 31
0
  0
LINE
  8
0
 62
4
 10
3012.982
 20
45858.445
 30
0
 11
3019.638
 21
45865.100
 31
0
  0
LINE
  8
0
 62
4
 10
3012.982
 20
45865.100
 30
0
 11
3019.638
 21
45858.445
 31
0
  0
LINE
  8
0
 62
4
 10
3295.932
 20
46080.989
 30
0
 11
3302.588
 21
46087.644
 31
0
  0
LINE
  8
0
 62
4
 10
3295.932
 20
46087.644
 30
0
 11
3302.588
 21
46080.989
 31
0
  0
ENDSEC
  0
EOF
