  0
SECTION
  2
ENTITIES
999
- - - Grid Lines - - -
  0
LINE
  8
0
 62
9
 10
0.000
 20
92400.000
 30
0
 11
0.000
 21
89200.000
 31
0
  0
LINE
  8
0
 62
9
 10
500.000
 20
92400.000
 30
0
 11
500.000
 21
89200.000
 31
0
  0
LINE
  8
0
 62
9
 10
1000.000
 20
92400.000
 30
0
 11
1000.000
 21
89200.000
 31
0
  0
LINE
  8
0
 62
9
 10
1500.000
 20
92400.000
 30
0
 11
1500.000
 21
89200.000
 31
0
  0
LINE
  8
0
 62
9
 10
2000.000
 20
92400.000
 30
0
 11
2000.000
 21
89200.000
 31
0
  0
LINE
  8
0
 62
9
 10
2500.000
 20
92400.000
 30
0
 11
2500.000
 21
89200.000
 31
0
  0
LINE
  8
0
 62
9
 10
3000.000
 20
92400.000
 30
0
 11
3000.000
 21
89200.000
 31
0
  0
LINE
  8
0
 62
9
 10
3500.000
 20
92400.000
 30
0
 11
3500.000
 21
89200.000
 31
0
  0
LINE
  8
0
 62
9
 10
0.000
 20
89200.000
 30
0
 11
3500.000
 21
89200.000
 31
0
  0
LINE
  8
0
 62
9
 10
0.000
 20
89600.000
 30
0
 11
3500.000
 21
89600.000
 31
0
  0
LINE
  8
0
 62
9
 10
0.000
 20
90000.000
 30
0
 11
3500.000
 21
90000.000
 31
0
  0
LINE
  8
0
 62
9
 10
0.000
 20
90400.000
 30
0
 11
3500.000
 21
90400.000
 31
0
  0
LINE
  8
0
 62
9
 10
0.000
 20
90800.000
 30
0
 11
3500.000
 21
90800.000
 31
0
  0
LINE
  8
0
 62
9
 10
0.000
 20
91200.000
 30
0
 11
3500.000
 21
91200.000
 31
0
  0
LINE
  8
0
 62
9
 10
0.000
 20
91600.000
 30
0
 11
3500.000
 21
91600.000
 31
0
  0
LINE
  8
0
 62
9
 10
0.000
 20
92000.000
 30
0
 11
3500.000
 21
92000.000
 31
0
  0
LINE
  8
0
 62
9
 10
0.000
 20
92400.000
 30
0
 11
3500.000
 21
92400.000
 31
0
  0
LINE
  8
0
 62
9
 10
100.000
 20
92400.000
 30
0
 11
100.000
 21
89200.000
 31
0
  0
LINE
  8
0
 62
9
 10
200.000
 20
92400.000
 30
0
 11
200.000
 21
89200.000
 31
0
  0
LINE
  8
0
 62
9
 10
300.000
 20
92400.000
 30
0
 11
300.000
 21
89200.000
 31
0
  0
LINE
  8
0
 62
9
 10
400.000
 20
92400.000
 30
0
 11
400.000
 21
89200.000
 31
0
  0
LINE
  8
0
 62
9
 10
600.000
 20
92400.000
 30
0
 11
600.000
 21
89200.000
 31
0
  0
LINE
  8
0
 62
9
 10
700.000
 20
92400.000
 30
0
 11
700.000
 21
89200.000
 31
0
  0
LINE
  8
0
 62
9
 10
800.000
 20
92400.000
 30
0
 11
800.000
 21
89200.000
 31
0
  0
LINE
  8
0
 62
9
 10
900.000
 20
92400.000
 30
0
 11
900.000
 21
89200.000
 31
0
  0
LINE
  8
0
 62
9
 10
1100.000
 20
92400.000
 30
0
 11
1100.000
 21
89200.000
 31
0
  0
LINE
  8
0
 62
9
 10
1200.000
 20
92400.000
 30
0
 11
1200.000
 21
89200.000
 31
0
  0
LINE
  8
0
 62
9
 10
1300.000
 20
92400.000
 30
0
 11
1300.000
 21
89200.000
 31
0
  0
LINE
  8
0
 62
9
 10
1400.000
 20
92400.000
 30
0
 11
1400.000
 21
89200.000
 31
0
  0
LINE
  8
0
 62
9
 10
1600.000
 20
92400.000
 30
0
 11
1600.000
 21
89200.000
 31
0
  0
LINE
  8
0
 62
9
 10
1700.000
 20
92400.000
 30
0
 11
1700.000
 21
89200.000
 31
0
  0
LINE
  8
0
 62
9
 10
1800.000
 20
92400.000
 30
0
 11
1800.000
 21
89200.000
 31
0
  0
LINE
  8
0
 62
9
 10
1900.000
 20
92400.000
 30
0
 11
1900.000
 21
89200.000
 31
0
  0
LINE
  8
0
 62
9
 10
2100.000
 20
92400.000
 30
0
 11
2100.000
 21
89200.000
 31
0
  0
LINE
  8
0
 62
9
 10
2200.000
 20
92400.000
 30
0
 11
2200.000
 21
89200.000
 31
0
  0
LINE
  8
0
 62
9
 10
2300.000
 20
92400.000
 30
0
 11
2300.000
 21
89200.000
 31
0
  0
LINE
  8
0
 62
9
 10
2400.000
 20
92400.000
 30
0
 11
2400.000
 21
89200.000
 31
0
  0
LINE
  8
0
 62
9
 10
2600.000
 20
92400.000
 30
0
 11
2600.000
 21
89200.000
 31
0
  0
LINE
  8
0
 62
9
 10
2700.000
 20
92400.000
 30
0
 11
2700.000
 21
89200.000
 31
0
  0
LINE
  8
0
 62
9
 10
2800.000
 20
92400.000
 30
0
 11
2800.000
 21
89200.000
 31
0
  0
LINE
  8
0
 62
9
 10
2899.999
 20
92400.000
 30
0
 11
2899.999
 21
89200.000
 31
0
  0
LINE
  8
0
 62
9
 10
3100.000
 20
92400.000
 30
0
 11
3100.000
 21
89200.000
 31
0
  0
LINE
  8
0
 62
9
 10
3200.000
 20
92400.000
 30
0
 11
3200.000
 21
89200.000
 31
0
  0
LINE
  8
0
 62
9
 10
3300.000
 20
92400.000
 30
0
 11
3300.000
 21
89200.000
 31
0
  0
LINE
  8
0
 62
9
 10
3400.000
 20
92400.000
 30
0
 11
3400.000
 21
89200.000
 31
0
  0
LINE
  8
0
 62
9
 10
0.000
 20
89400.000
 30
0
 11
3500.000
 21
89400.000
 31
0
  0
LINE
  8
0
 62
9
 10
0.000
 20
89800.000
 30
0
 11
3500.000
 21
89800.000
 31
0
  0
LINE
  8
0
 62
9
 10
0.000
 20
90200.000
 30
0
 11
3500.000
 21
90200.000
 31
0
  0
LINE
  8
0
 62
9
 10
0.000
 20
90600.000
 30
0
 11
3500.000
 21
90600.000
 31
0
  0
LINE
  8
0
 62
9
 10
0.000
 20
91000.000
 30
0
 11
3500.000
 21
91000.000
 31
0
  0
LINE
  8
0
 62
9
 10
0.000
 20
91400.000
 30
0
 11
3500.000
 21
91400.000
 31
0
  0
LINE
  8
0
 62
9
 10
0.000
 20
91800.000
 30
0
 11
3500.000
 21
91800.000
 31
0
  0
LINE
  8
0
 62
9
 10
0.000
 20
92200.000
 30
0
 11
3500.000
 21
92200.000
 31
0
  0
LINE
  8
0
 62
7
 10
0.000
 20
89200.000
 30
0
 11
0.000
 21
92400.000
 31
0
  0
LINE
  8
0
 62
7
 10
0.000
 20
92400.000
 30
0
 11
3500.000
 21
92400.000
 31
0
  0
LINE
  8
0
 62
7
 10
3500.000
 20
92400.000
 30
0
 11
3500.000
 21
89200.000
 31
0
  0
LINE
  8
0
 62
7
 10
3500.000
 20
89200.000
 30
0
 11
0.000
 21
89200.000
 31
0
999
- - - Axis - - -
  0
LINE
  8
0
 62
7
 10
0.000
 20
89200.000
 30
0
 11
0.000
 21
92400.000
 31
0
  0
LINE
  8
0
 62
7
 10
0.000
 20
89200.000
 30
0
 11
3500.000
 21
89200.000
 31
0
  0
LINE
  8
0
 62
7
 10
0.000
 20
89200.000
 30
0
 11
0.000
 21
89181.070
 31
0
  0
Text
  8
0
 10
0.000
 20
89171.605
 30
0
 40
47.32525
 50
0
  1
0
 72
1
 11
0.000
 21
89171.605
 31
0
 73
3
  0
LINE
  8
0
 62
7
 10
500.000
 20
89200.000
 30
0
 11
500.000
 21
89181.070
 31
0
  0
Text
  8
0
 10
500.000
 20
89171.605
 30
0
 40
47.32525
 50
0
  1
500
 72
1
 11
500.000
 21
89171.605
 31
0
 73
3
  0
LINE
  8
0
 62
7
 10
1000.000
 20
89200.000
 30
0
 11
1000.000
 21
89181.070
 31
0
  0
Text
  8
0
 10
1000.000
 20
89171.605
 30
0
 40
47.32525
 50
0
  1
1000
 72
1
 11
1000.000
 21
89171.605
 31
0
 73
3
  0
LINE
  8
0
 62
7
 10
1500.000
 20
89200.000
 30
0
 11
1500.000
 21
89181.070
 31
0
  0
Text
  8
0
 10
1500.000
 20
89171.605
 30
0
 40
47.32525
 50
0
  1
1500
 72
1
 11
1500.000
 21
89171.605
 31
0
 73
3
  0
LINE
  8
0
 62
7
 10
2000.000
 20
89200.000
 30
0
 11
2000.000
 21
89181.070
 31
0
  0
Text
  8
0
 10
2000.000
 20
89171.605
 30
0
 40
47.32525
 50
0
  1
2000
 72
1
 11
2000.000
 21
89171.605
 31
0
 73
3
  0
LINE
  8
0
 62
7
 10
2500.000
 20
89200.000
 30
0
 11
2500.000
 21
89181.070
 31
0
  0
Text
  8
0
 10
2500.000
 20
89171.605
 30
0
 40
47.32525
 50
0
  1
2500
 72
1
 11
2500.000
 21
89171.605
 31
0
 73
3
  0
LINE
  8
0
 62
7
 10
3000.000
 20
89200.000
 30
0
 11
3000.000
 21
89181.070
 31
0
  0
Text
  8
0
 10
3000.000
 20
89171.605
 30
0
 40
47.32525
 50
0
  1
3000
 72
1
 11
3000.000
 21
89171.605
 31
0
 73
3
  0
LINE
  8
0
 62
7
 10
3500.000
 20
89200.000
 30
0
 11
3500.000
 21
89181.070
 31
0
  0
Text
  8
0
 10
3500.000
 20
89171.605
 30
0
 40
47.32525
 50
0
  1
3500
 72
1
 11
3500.000
 21
89171.605
 31
0
 73
3
  0
LINE
  8
0
 62
7
 10
100.000
 20
89200.000
 30
0
 11
100.000
 21
89188.169
 31
0
  0
LINE
  8
0
 62
7
 10
200.000
 20
89200.000
 30
0
 11
200.000
 21
89188.169
 31
0
  0
LINE
  8
0
 62
7
 10
300.000
 20
89200.000
 30
0
 11
300.000
 21
89188.169
 31
0
  0
LINE
  8
0
 62
7
 10
400.000
 20
89200.000
 30
0
 11
400.000
 21
89188.169
 31
0
  0
LINE
  8
0
 62
7
 10
600.000
 20
89200.000
 30
0
 11
600.000
 21
89188.169
 31
0
  0
LINE
  8
0
 62
7
 10
700.000
 20
89200.000
 30
0
 11
700.000
 21
89188.169
 31
0
  0
LINE
  8
0
 62
7
 10
800.000
 20
89200.000
 30
0
 11
800.000
 21
89188.169
 31
0
  0
LINE
  8
0
 62
7
 10
900.000
 20
89200.000
 30
0
 11
900.000
 21
89188.169
 31
0
  0
LINE
  8
0
 62
7
 10
1100.000
 20
89200.000
 30
0
 11
1100.000
 21
89188.169
 31
0
  0
LINE
  8
0
 62
7
 10
1200.000
 20
89200.000
 30
0
 11
1200.000
 21
89188.169
 31
0
  0
LINE
  8
0
 62
7
 10
1300.000
 20
89200.000
 30
0
 11
1300.000
 21
89188.169
 31
0
  0
LINE
  8
0
 62
7
 10
1400.000
 20
89200.000
 30
0
 11
1400.000
 21
89188.169
 31
0
  0
LINE
  8
0
 62
7
 10
1600.000
 20
89200.000
 30
0
 11
1600.000
 21
89188.169
 31
0
  0
LINE
  8
0
 62
7
 10
1700.000
 20
89200.000
 30
0
 11
1700.000
 21
89188.169
 31
0
  0
LINE
  8
0
 62
7
 10
1800.000
 20
89200.000
 30
0
 11
1800.000
 21
89188.169
 31
0
  0
LINE
  8
0
 62
7
 10
1900.000
 20
89200.000
 30
0
 11
1900.000
 21
89188.169
 31
0
  0
LINE
  8
0
 62
7
 10
2100.000
 20
89200.000
 30
0
 11
2100.000
 21
89188.169
 31
0
  0
LINE
  8
0
 62
7
 10
2200.000
 20
89200.000
 30
0
 11
2200.000
 21
89188.169
 31
0
  0
LINE
  8
0
 62
7
 10
2300.000
 20
89200.000
 30
0
 11
2300.000
 21
89188.169
 31
0
  0
LINE
  8
0
 62
7
 10
2400.000
 20
89200.000
 30
0
 11
2400.000
 21
89188.169
 31
0
  0
LINE
  8
0
 62
7
 10
2600.000
 20
89200.000
 30
0
 11
2600.000
 21
89188.169
 31
0
  0
LINE
  8
0
 62
7
 10
2700.000
 20
89200.000
 30
0
 11
2700.000
 21
89188.169
 31
0
  0
LINE
  8
0
 62
7
 10
2800.000
 20
89200.000
 30
0
 11
2800.000
 21
89188.169
 31
0
  0
LINE
  8
0
 62
7
 10
2899.999
 20
89200.000
 30
0
 11
2899.999
 21
89188.169
 31
0
  0
LINE
  8
0
 62
7
 10
3100.000
 20
89200.000
 30
0
 11
3100.000
 21
89188.169
 31
0
  0
LINE
  8
0
 62
7
 10
3200.000
 20
89200.000
 30
0
 11
3200.000
 21
89188.169
 31
0
  0
LINE
  8
0
 62
7
 10
3300.000
 20
89200.000
 30
0
 11
3300.000
 21
89188.169
 31
0
  0
LINE
  8
0
 62
7
 10
3400.000
 20
89200.000
 30
0
 11
3400.000
 21
89188.169
 31
0
  0
LINE
  8
0
 62
7
 10
0.000
 20
89200.000
 30
0
 11
-18.930
 21
89200.000
 31
0
  0
Text
  8
0
 10
-37.860
 20
89200.000
 30
0
 40
47.32525
 50
0
  1
2230
 72
2
 11
-37.860
 21
89200.000
 31
0
 73
2
  0
LINE
  8
0
 62
7
 10
0.000
 20
89600.000
 30
0
 11
-18.930
 21
89600.000
 31
0
  0
Text
  8
0
 10
-37.860
 20
89600.000
 30
0
 40
47.32525
 50
0
  1
2240
 72
2
 11
-37.860
 21
89600.000
 31
0
 73
2
  0
LINE
  8
0
 62
7
 10
0.000
 20
90000.000
 30
0
 11
-18.930
 21
90000.000
 31
0
  0
Text
  8
0
 10
-37.860
 20
90000.000
 30
0
 40
47.32525
 50
0
  1
2250
 72
2
 11
-37.860
 21
90000.000
 31
0
 73
2
  0
LINE
  8
0
 62
7
 10
0.000
 20
90400.000
 30
0
 11
-18.930
 21
90400.000
 31
0
  0
Text
  8
0
 10
-37.860
 20
90400.000
 30
0
 40
47.32525
 50
0
  1
2260
 72
2
 11
-37.860
 21
90400.000
 31
0
 73
2
  0
LINE
  8
0
 62
7
 10
0.000
 20
90800.000
 30
0
 11
-18.930
 21
90800.000
 31
0
  0
Text
  8
0
 10
-37.860
 20
90800.000
 30
0
 40
47.32525
 50
0
  1
2270
 72
2
 11
-37.860
 21
90800.000
 31
0
 73
2
  0
LINE
  8
0
 62
7
 10
0.000
 20
91200.000
 30
0
 11
-18.930
 21
91200.000
 31
0
  0
Text
  8
0
 10
-37.860
 20
91200.000
 30
0
 40
47.32525
 50
0
  1
2280
 72
2
 11
-37.860
 21
91200.000
 31
0
 73
2
  0
LINE
  8
0
 62
7
 10
0.000
 20
91600.000
 30
0
 11
-18.930
 21
91600.000
 31
0
  0
Text
  8
0
 10
-37.860
 20
91600.000
 30
0
 40
47.32525
 50
0
  1
2290
 72
2
 11
-37.860
 21
91600.000
 31
0
 73
2
  0
LINE
  8
0
 62
7
 10
0.000
 20
92000.000
 30
0
 11
-18.930
 21
92000.000
 31
0
  0
Text
  8
0
 10
-37.860
 20
92000.000
 30
0
 40
47.32525
 50
0
  1
2300
 72
2
 11
-37.860
 21
92000.000
 31
0
 73
2
  0
LINE
  8
0
 62
7
 10
0.000
 20
92400.000
 30
0
 11
-18.930
 21
92400.000
 31
0
  0
Text
  8
0
 10
-37.860
 20
92400.000
 30
0
 40
47.32525
 50
0
  1
2310
 72
2
 11
-37.860
 21
92400.000
 31
0
 73
2
  0
LINE
  8
0
 62
7
 10
0.000
 20
89400.000
 30
0
 11
-11.831
 21
89400.000
 31
0
  0
LINE
  8
0
 62
7
 10
0.000
 20
89800.000
 30
0
 11
-11.831
 21
89800.000
 31
0
  0
LINE
  8
0
 62
7
 10
0.000
 20
90200.000
 30
0
 11
-11.831
 21
90200.000
 31
0
  0
LINE
  8
0
 62
7
 10
0.000
 20
90600.000
 30
0
 11
-11.831
 21
90600.000
 31
0
  0
LINE
  8
0
 62
7
 10
0.000
 20
91000.000
 30
0
 11
-11.831
 21
91000.000
 31
0
  0
LINE
  8
0
 62
7
 10
0.000
 20
91400.000
 30
0
 11
-11.831
 21
91400.000
 31
0
  0
LINE
  8
0
 62
7
 10
0.000
 20
91800.000
 30
0
 11
-11.831
 21
91800.000
 31
0
  0
LINE
  8
0
 62
7
 10
0.000
 20
92200.000
 30
0
 11
-11.831
 21
92200.000
 31
0
  0
Text
  8
0
 10
1750.000
 20
92488.735
 30
0
 40
59.15656
 50
0
  1
W331-332 - Butcher Hook Wash       Plan: Butcher Hook - Refined    5/8/2004 
 72
1
 11
1750.000
 21
92488.735
 31
0
 73
3
  0
Text
  8
0
 10
1750.000
 20
89001.641
 30
0
 40
47.32525
 50
0
  1
Main Channel Distance (ft)
 72
1
 11
1750.000
 21
89001.641
 31
0
 73
3
  0
Text
  8
0
 10
-283.951
 20
90800.000
 30
0
 40
47.32525
 50
90
  1
Elevation (ft)
 72
1
 11
-283.951
 21
90800.000
 31
0
 73
3
999
- - - Legend - - -
  0
Text
  8
0
 10
3712.964
 20
92376.337
 30
0
 40
47.32525
 50
0
  1
Legend
 72
1
 11
3712.964
 21
92376.337
 31
0
 73
3
  0
LINE
  8
0
 62
7
 10
3594.650
 20
92305.350
 30
0
 11
3831.277
 21
92305.350
 31
0
  0
LINE
  8
0
 62
4
 10
3594.650
 20
92234.362
 30
0
 11
3831.277
 21
92234.362
 31
0
  0
LINE
  8
0
 62
4
 10
3706.309
 20
92227.707
 30
0
 11
3719.619
 21
92241.017
 31
0
  0
LINE
  8
0
 62
4
 10
3706.309
 20
92241.017
 30
0
 11
3719.619
 21
92227.707
 31
0
  0
Text
  8
0
 10
3712.964
 20
92187.036
 30
0
 40
47.32525
 50
0
  1
WS  Q500
 72
1
 11
3712.964
 21
92187.036
 31
0
 73
3
  0
LINE
  8
0
 62
4
 10
3594.650
 20
92116.049
 30
0
 11
3831.277
 21
92116.049
 31
0
  0
LINE
  8
0
 62
4
 10
3706.309
 20
92120.485
 30
0
 11
3719.619
 21
92120.485
 31
0
  0
LINE
  8
0
 62
4
 10
3712.964
 20
92107.175
 30
0
 11
3719.619
 21
92120.485
 31
0
  0
LINE
  8
0
 62
4
 10
3712.964
 20
92107.175
 30
0
 11
3706.309
 21
92120.485
 31
0
  0
Text
  8
0
 10
3712.964
 20
92068.723
 30
0
 40
47.32525
 50
0
  1
WS  Q100
 72
1
 11
3712.964
 21
92068.723
 31
0
 73
3
  0
LINE
  8
0
 62
4
 10
3594.650
 20
91997.735
 30
0
 11
3831.277
 21
91997.735
 31
0
  0
LINE
  8
0
 62
4
 10
3706.309
 20
91993.299
 30
0
 11
3719.619
 21
91993.299
 31
0
  0
LINE
  8
0
 62
4
 10
3712.964
 20
92006.609
 30
0
 11
3719.619
 21
91993.299
 31
0
  0
LINE
  8
0
 62
4
 10
3712.964
 20
92006.609
 30
0
 11
3706.309
 21
91993.299
 31
0
  0
Text
  8
0
 10
3712.964
 20
91950.410
 30
0
 40
47.32525
 50
0
  1
WS  Q50
 72
1
 11
3712.964
 21
91950.410
 31
0
 73
3
  0
LINE
  8
0
 62
4
 10
3594.650
 20
91879.422
 30
0
 11
3831.277
 21
91879.422
 31
0
  0
Text
  8
0
 10
3712.964
 20
91832.097
 30
0
 40
47.32525
 50
0
  1
WS  Q10
 72
1
 11
3712.964
 21
91832.097
 31
0
 73
3
  0
LINE
  8
0
 62
7
 10
3594.650
 20
91761.109
 30
0
 11
3831.277
 21
91761.109
 31
0
  0
LINE
  8
0
 62
7
 10
3706.309
 20
91754.454
 30
0
 11
3706.309
 21
91767.764
 31
0
  0
LINE
  8
0
 62
7
 10
3706.309
 20
91767.764
 30
0
 11
3719.619
 21
91767.764
 31
0
  0
LINE
  8
0
 62
7
 10
3719.619
 20
91767.764
 30
0
 11
3719.619
 21
91754.454
 31
0
  0
LINE
  8
0
 62
7
 10
3719.619
 20
91754.454
 30
0
 11
3706.309
 21
91754.454
 31
0
  0
Text
  8
0
 10
3712.964
 20
91713.784
 30
0
 40
47.32525
 50
0
  1
Ground
 72
1
 11
3712.964
 21
91713.784
 31
0
 73
3
  0
LINE
  8
0
 62
7
 10
3547.325
 20
92400.000
 30
0
 11
3878.602
 21
92400.000
 31
0
  0
LINE
  8
0
 62
7
 10
3878.602
 20
92400.000
 30
0
 11
3878.602
 21
91642.796
 31
0
  0
LINE
  8
0
 62
7
 10
3547.325
 20
92400.000
 30
0
 11
3547.325
 21
91642.796
 31
0
  0
LINE
  8
0
 62
7
 10
3878.602
 20
91642.796
 30
0
 11
3547.325
 21
91642.796
 31
0
999
- - - Line Data - - -
999
- - - Line Data - - -
  0
LINE
  8
0
 62
7
 10
792.620
 20
89401.602
 30
0
 11
792.620
 21
89551.201
 31
0
  0
LINE
  8
0
 62
7
 10
792.620
 20
89551.201
 30
0
 11
829.620
 21
89611.602
 31
0
  0
LINE
  8
0
 62
7
 10
829.620
 20
89611.602
 30
0
 11
829.620
 21
89498.398
 31
0
  0
LINE
  8
0
 62
7
 10
829.620
 20
89498.398
 30
0
 11
792.620
 21
89401.602
 31
0
999
- - - Line Data - - -
  0
LINE
  8
0
 62
7
 10
2543.340
 20
90910.801
 30
0
 11
2543.340
 21
91289.805
 31
0
  0
LINE
  8
0
 62
7
 10
2543.340
 20
91289.805
 30
0
 11
2591.340
 21
91302.256
 31
0
  0
LINE
  8
0
 62
7
 10
2591.340
 20
91302.256
 30
0
 11
2591.340
 21
91021.602
 31
0
  0
LINE
  8
0
 62
7
 10
2591.340
 20
91021.602
 30
0
 11
2543.340
 21
90910.801
 31
0
999
- - - Line Data - - -
  0
LINE
  8
0
 62
7
 10
795.620
 20
89442.402
 30
0
 11
795.620
 21
89602.402
 31
0
  0
LINE
  8
0
 62
7
 10
795.620
 20
89602.402
 30
0
 11
835.620
 21
89618.799
 31
0
  0
LINE
  8
0
 62
7
 10
835.620
 20
89618.799
 30
0
 11
835.620
 21
89458.799
 31
0
  0
LINE
  8
0
 62
7
 10
835.620
 20
89458.799
 30
0
 11
795.620
 21
89442.402
 31
0
999
- - - Line Data - - -
  0
LINE
  8
0
 62
7
 10
795.620
 20
89421.201
 30
0
 11
795.620
 21
89581.201
 31
0
  0
LINE
  8
0
 62
7
 10
795.620
 20
89581.201
 30
0
 11
835.620
 21
89642.402
 31
0
  0
LINE
  8
0
 62
7
 10
835.620
 20
89642.402
 30
0
 11
835.620
 21
89482.402
 31
0
  0
LINE
  8
0
 62
7
 10
835.620
 20
89482.402
 30
0
 11
795.620
 21
89421.201
 31
0
999
- - - Line Data - - -
  0
LINE
  8
0
 62
7
 10
2494.340
 20
90901.201
 30
0
 11
2494.340
 21
91061.201
 31
0
  0
LINE
  8
0
 62
7
 10
2494.340
 20
91061.201
 30
0
 11
2638.340
 21
91146.396
 31
0
  0
LINE
  8
0
 62
7
 10
2638.340
 20
91146.396
 30
0
 11
2638.340
 21
90986.396
 31
0
  0
LINE
  8
0
 62
7
 10
2638.340
 20
90986.396
 30
0
 11
2494.340
 21
90901.201
 31
0
999
- - - Line Data - - -
  0
LINE
  8
0
 62
7
 10
0.000
 20
89206.396
 30
0
 11
542.910
 21
89300.000
 31
0
  0
LINE
  8
0
 62
7
 10
542.910
 20
89300.000
 30
0
 11
748.290
 21
89401.602
 31
0
  0
LINE
  8
0
 62
7
 10
748.290
 20
89401.602
 30
0
 11
792.620
 21
89401.602
 31
0
  0
LINE
  8
0
 62
7
 10
792.620
 20
89401.602
 30
0
 11
829.620
 21
89498.398
 31
0
  0
LINE
  8
0
 62
7
 10
829.620
 20
89498.398
 30
0
 11
863.620
 21
89498.398
 31
0
  0
LINE
  8
0
 62
7
 10
863.620
 20
89498.398
 30
0
 11
999.840
 21
89564.805
 31
0
  0
LINE
  8
0
 62
7
 10
999.840
 20
89564.805
 30
0
 11
1246.580
 21
89814.004
 31
0
  0
LINE
  8
0
 62
7
 10
1246.580
 20
89814.004
 30
0
 11
1262.630
 21
89749.199
 31
0
  0
LINE
  8
0
 62
7
 10
1262.630
 20
89749.199
 30
0
 11
1438.670
 21
89867.998
 31
0
  0
LINE
  8
0
 62
7
 10
1438.670
 20
89867.998
 30
0
 11
1576.360
 21
89953.203
 31
0
  0
LINE
  8
0
 62
7
 10
1576.360
 20
89953.203
 30
0
 11
1653.170
 21
89968.799
 31
0
  0
LINE
  8
0
 62
7
 10
1653.170
 20
89968.799
 30
0
 11
1771.840
 21
90068.398
 31
0
  0
LINE
  8
0
 62
7
 10
1771.840
 20
90068.398
 30
0
 11
2065.180
 21
90531.201
 31
0
  0
LINE
  8
0
 62
7
 10
2065.180
 20
90531.201
 30
0
 11
2118.050
 21
90563.604
 31
0
  0
LINE
  8
0
 62
7
 10
2118.050
 20
90563.604
 30
0
 11
2221.020
 21
90624.004
 31
0
  0
LINE
  8
0
 62
7
 10
2221.020
 20
90624.004
 30
0
 11
2400.710
 21
90765.996
 31
0
  0
LINE
  8
0
 62
7
 10
2400.710
 20
90765.996
 30
0
 11
2478.740
 21
90910.801
 31
0
  0
LINE
  8
0
 62
7
 10
2478.740
 20
90910.801
 30
0
 11
2543.340
 21
90910.801
 31
0
  0
LINE
  8
0
 62
7
 10
2543.340
 20
90910.801
 30
0
 11
2591.340
 21
91021.602
 31
0
  0
LINE
  8
0
 62
7
 10
2591.340
 20
91021.602
 30
0
 11
2641.340
 21
91021.602
 31
0
  0
LINE
  8
0
 62
7
 10
2641.340
 20
91021.602
 30
0
 11
2731.380
 21
91085.996
 31
0
  0
LINE
  8
0
 62
7
 10
2731.380
 20
91085.996
 30
0
 11
2820.500
 21
91248.398
 31
0
  0
LINE
  8
0
 62
7
 10
2820.500
 20
91248.398
 30
0
 11
3016.310
 21
91604.805
 31
0
  0
LINE
  8
0
 62
7
 10
3016.310
 20
91604.805
 30
0
 11
3299.260
 21
91922.402
 31
0
999
- - - Symbol Data - - -
  0
LINE
  8
0
 62
7
 10
-6.655
 20
89199.741
 30
0
 11
-6.655
 21
89213.052
 31
0
  0
LINE
  8
0
 62
7
 10
-6.655
 20
89213.052
 30
0
 11
6.655
 21
89213.052
 31
0
  0
LINE
  8
0
 62
7
 10
6.655
 20
89213.052
 30
0
 11
6.655
 21
89199.741
 31
0
  0
LINE
  8
0
 62
7
 10
6.655
 20
89199.741
 30
0
 11
-6.655
 21
89199.741
 31
0
  0
LINE
  8
0
 62
7
 10
536.255
 20
89293.345
 30
0
 11
536.255
 21
89306.655
 31
0
  0
LINE
  8
0
 62
7
 10
536.255
 20
89306.655
 30
0
 11
549.565
 21
89306.655
 31
0
  0
LINE
  8
0
 62
7
 10
549.565
 20
89306.655
 30
0
 11
549.565
 21
89293.345
 31
0
  0
LINE
  8
0
 62
7
 10
549.565
 20
89293.345
 30
0
 11
536.255
 21
89293.345
 31
0
  0
LINE
  8
0
 62
7
 10
741.635
 20
89394.946
 30
0
 11
741.635
 21
89408.257
 31
0
  0
LINE
  8
0
 62
7
 10
741.635
 20
89408.257
 30
0
 11
754.945
 21
89408.257
 31
0
  0
LINE
  8
0
 62
7
 10
754.945
 20
89408.257
 30
0
 11
754.945
 21
89394.946
 31
0
  0
LINE
  8
0
 62
7
 10
754.945
 20
89394.946
 30
0
 11
741.635
 21
89394.946
 31
0
  0
LINE
  8
0
 62
7
 10
785.965
 20
89394.946
 30
0
 11
785.965
 21
89408.257
 31
0
  0
LINE
  8
0
 62
7
 10
785.965
 20
89408.257
 30
0
 11
799.275
 21
89408.257
 31
0
  0
LINE
  8
0
 62
7
 10
799.275
 20
89408.257
 30
0
 11
799.275
 21
89394.946
 31
0
  0
LINE
  8
0
 62
7
 10
799.275
 20
89394.946
 30
0
 11
785.965
 21
89394.946
 31
0
  0
LINE
  8
0
 62
7
 10
822.965
 20
89491.743
 30
0
 11
822.965
 21
89505.054
 31
0
  0
LINE
  8
0
 62
7
 10
822.965
 20
89505.054
 30
0
 11
836.275
 21
89505.054
 31
0
  0
LINE
  8
0
 62
7
 10
836.275
 20
89505.054
 30
0
 11
836.275
 21
89491.743
 31
0
  0
LINE
  8
0
 62
7
 10
836.275
 20
89491.743
 30
0
 11
822.965
 21
89491.743
 31
0
  0
LINE
  8
0
 62
7
 10
856.965
 20
89491.743
 30
0
 11
856.965
 21
89505.054
 31
0
  0
LINE
  8
0
 62
7
 10
856.965
 20
89505.054
 30
0
 11
870.275
 21
89505.054
 31
0
  0
LINE
  8
0
 62
7
 10
870.275
 20
89505.054
 30
0
 11
870.275
 21
89491.743
 31
0
  0
LINE
  8
0
 62
7
 10
870.275
 20
89491.743
 30
0
 11
856.965
 21
89491.743
 31
0
  0
LINE
  8
0
 62
7
 10
993.185
 20
89558.150
 30
0
 11
993.185
 21
89571.460
 31
0
  0
LINE
  8
0
 62
7
 10
993.185
 20
89571.460
 30
0
 11
1006.495
 21
89571.460
 31
0
  0
LINE
  8
0
 62
7
 10
1006.495
 20
89571.460
 30
0
 11
1006.495
 21
89558.150
 31
0
  0
LINE
  8
0
 62
7
 10
1006.495
 20
89558.150
 30
0
 11
993.185
 21
89558.150
 31
0
  0
LINE
  8
0
 62
7
 10
1239.925
 20
89807.349
 30
0
 11
1239.925
 21
89820.659
 31
0
  0
LINE
  8
0
 62
7
 10
1239.925
 20
89820.659
 30
0
 11
1253.235
 21
89820.659
 31
0
  0
LINE
  8
0
 62
7
 10
1253.235
 20
89820.659
 30
0
 11
1253.235
 21
89807.349
 31
0
  0
LINE
  8
0
 62
7
 10
1253.235
 20
89807.349
 30
0
 11
1239.925
 21
89807.349
 31
0
  0
LINE
  8
0
 62
7
 10
1255.975
 20
89742.544
 30
0
 11
1255.975
 21
89755.854
 31
0
  0
LINE
  8
0
 62
7
 10
1255.975
 20
89755.854
 30
0
 11
1269.285
 21
89755.854
 31
0
  0
LINE
  8
0
 62
7
 10
1269.285
 20
89755.854
 30
0
 11
1269.285
 21
89742.544
 31
0
  0
LINE
  8
0
 62
7
 10
1269.285
 20
89742.544
 30
0
 11
1255.975
 21
89742.544
 31
0
  0
LINE
  8
0
 62
7
 10
1432.015
 20
89861.343
 30
0
 11
1432.015
 21
89874.653
 31
0
  0
LINE
  8
0
 62
7
 10
1432.015
 20
89874.653
 30
0
 11
1445.325
 21
89874.653
 31
0
  0
LINE
  8
0
 62
7
 10
1445.325
 20
89874.653
 30
0
 11
1445.325
 21
89861.343
 31
0
  0
LINE
  8
0
 62
7
 10
1445.325
 20
89861.343
 30
0
 11
1432.015
 21
89861.343
 31
0
  0
LINE
  8
0
 62
7
 10
1569.705
 20
89946.548
 30
0
 11
1569.705
 21
89959.858
 31
0
  0
LINE
  8
0
 62
7
 10
1569.705
 20
89959.858
 30
0
 11
1583.015
 21
89959.858
 31
0
  0
LINE
  8
0
 62
7
 10
1583.015
 20
89959.858
 30
0
 11
1583.015
 21
89946.548
 31
0
  0
LINE
  8
0
 62
7
 10
1583.015
 20
89946.548
 30
0
 11
1569.705
 21
89946.548
 31
0
  0
LINE
  8
0
 62
7
 10
1646.515
 20
89962.144
 30
0
 11
1646.515
 21
89975.454
 31
0
  0
LINE
  8
0
 62
7
 10
1646.515
 20
89975.454
 30
0
 11
1659.825
 21
89975.454
 31
0
  0
LINE
  8
0
 62
7
 10
1659.825
 20
89975.454
 30
0
 11
1659.825
 21
89962.144
 31
0
  0
LINE
  8
0
 62
7
 10
1659.825
 20
89962.144
 30
0
 11
1646.515
 21
89962.144
 31
0
  0
LINE
  8
0
 62
7
 10
1765.185
 20
90061.743
 30
0
 11
1765.185
 21
90075.054
 31
0
  0
LINE
  8
0
 62
7
 10
1765.185
 20
90075.054
 30
0
 11
1778.495
 21
90075.054
 31
0
  0
LINE
  8
0
 62
7
 10
1778.495
 20
90075.054
 30
0
 11
1778.495
 21
90061.743
 31
0
  0
LINE
  8
0
 62
7
 10
1778.495
 20
90061.743
 30
0
 11
1765.185
 21
90061.743
 31
0
  0
LINE
  8
0
 62
7
 10
2058.525
 20
90524.546
 30
0
 11
2058.525
 21
90537.856
 31
0
  0
LINE
  8
0
 62
7
 10
2058.525
 20
90537.856
 30
0
 11
2071.835
 21
90537.856
 31
0
  0
LINE
  8
0
 62
7
 10
2071.835
 20
90537.856
 30
0
 11
2071.835
 21
90524.546
 31
0
  0
LINE
  8
0
 62
7
 10
2071.835
 20
90524.546
 30
0
 11
2058.525
 21
90524.546
 31
0
  0
LINE
  8
0
 62
7
 10
2111.395
 20
90556.948
 30
0
 11
2111.395
 21
90570.259
 31
0
  0
LINE
  8
0
 62
7
 10
2111.395
 20
90570.259
 30
0
 11
2124.705
 21
90570.259
 31
0
  0
LINE
  8
0
 62
7
 10
2124.705
 20
90570.259
 30
0
 11
2124.705
 21
90556.948
 31
0
  0
LINE
  8
0
 62
7
 10
2124.705
 20
90556.948
 30
0
 11
2111.395
 21
90556.948
 31
0
  0
LINE
  8
0
 62
7
 10
2214.365
 20
90617.349
 30
0
 11
2214.365
 21
90630.659
 31
0
  0
LINE
  8
0
 62
7
 10
2214.365
 20
90630.659
 30
0
 11
2227.675
 21
90630.659
 31
0
  0
LINE
  8
0
 62
7
 10
2227.675
 20
90630.659
 30
0
 11
2227.675
 21
90617.349
 31
0
  0
LINE
  8
0
 62
7
 10
2227.675
 20
90617.349
 30
0
 11
2214.365
 21
90617.349
 31
0
  0
LINE
  8
0
 62
7
 10
2394.055
 20
90759.341
 30
0
 11
2394.055
 21
90772.651
 31
0
  0
LINE
  8
0
 62
7
 10
2394.055
 20
90772.651
 30
0
 11
2407.365
 21
90772.651
 31
0
  0
LINE
  8
0
 62
7
 10
2407.365
 20
90772.651
 30
0
 11
2407.365
 21
90759.341
 31
0
  0
LINE
  8
0
 62
7
 10
2407.365
 20
90759.341
 30
0
 11
2394.055
 21
90759.341
 31
0
  0
LINE
  8
0
 62
7
 10
2472.085
 20
90904.146
 30
0
 11
2472.085
 21
90917.456
 31
0
  0
LINE
  8
0
 62
7
 10
2472.085
 20
90917.456
 30
0
 11
2485.395
 21
90917.456
 31
0
  0
LINE
  8
0
 62
7
 10
2485.395
 20
90917.456
 30
0
 11
2485.395
 21
90904.146
 31
0
  0
LINE
  8
0
 62
7
 10
2485.395
 20
90904.146
 30
0
 11
2472.085
 21
90904.146
 31
0
  0
LINE
  8
0
 62
7
 10
2536.685
 20
90904.146
 30
0
 11
2536.685
 21
90917.456
 31
0
  0
LINE
  8
0
 62
7
 10
2536.685
 20
90917.456
 30
0
 11
2549.995
 21
90917.456
 31
0
  0
LINE
  8
0
 62
7
 10
2549.995
 20
90917.456
 30
0
 11
2549.995
 21
90904.146
 31
0
  0
LINE
  8
0
 62
7
 10
2549.995
 20
90904.146
 30
0
 11
2536.685
 21
90904.146
 31
0
  0
LINE
  8
0
 62
7
 10
2584.685
 20
91014.946
 30
0
 11
2584.685
 21
91028.257
 31
0
  0
LINE
  8
0
 62
7
 10
2584.685
 20
91028.257
 30
0
 11
2597.995
 21
91028.257
 31
0
  0
LINE
  8
0
 62
7
 10
2597.995
 20
91028.257
 30
0
 11
2597.995
 21
91014.946
 31
0
  0
LINE
  8
0
 62
7
 10
2597.995
 20
91014.946
 30
0
 11
2584.685
 21
91014.946
 31
0
  0
LINE
  8
0
 62
7
 10
2634.685
 20
91014.946
 30
0
 11
2634.685
 21
91028.257
 31
0
  0
LINE
  8
0
 62
7
 10
2634.685
 20
91028.257
 30
0
 11
2647.995
 21
91028.257
 31
0
  0
LINE
  8
0
 62
7
 10
2647.995
 20
91028.257
 30
0
 11
2647.995
 21
91014.946
 31
0
  0
LINE
  8
0
 62
7
 10
2647.995
 20
91014.946
 30
0
 11
2634.685
 21
91014.946
 31
0
  0
LINE
  8
0
 62
7
 10
2724.725
 20
91079.341
 30
0
 11
2724.725
 21
91092.651
 31
0
  0
LINE
  8
0
 62
7
 10
2724.725
 20
91092.651
 30
0
 11
2738.035
 21
91092.651
 31
0
  0
LINE
  8
0
 62
7
 10
2738.035
 20
91092.651
 30
0
 11
2738.035
 21
91079.341
 31
0
  0
LINE
  8
0
 62
7
 10
2738.035
 20
91079.341
 30
0
 11
2724.725
 21
91079.341
 31
0
  0
LINE
  8
0
 62
7
 10
2813.845
 20
91241.743
 30
0
 11
2813.845
 21
91255.054
 31
0
  0
LINE
  8
0
 62
7
 10
2813.845
 20
91255.054
 30
0
 11
2827.155
 21
91255.054
 31
0
  0
LINE
  8
0
 62
7
 10
2827.155
 20
91255.054
 30
0
 11
2827.155
 21
91241.743
 31
0
  0
LINE
  8
0
 62
7
 10
2827.155
 20
91241.743
 30
0
 11
2813.845
 21
91241.743
 31
0
  0
LINE
  8
0
 62
7
 10
3009.655
 20
91598.150
 30
0
 11
3009.655
 21
91611.460
 31
0
  0
LINE
  8
0
 62
7
 10
3009.655
 20
91611.460
 30
0
 11
3022.965
 21
91611.460
 31
0
  0
LINE
  8
0
 62
7
 10
3022.965
 20
91611.460
 30
0
 11
3022.965
 21
91598.150
 31
0
  0
LINE
  8
0
 62
7
 10
3022.965
 20
91598.150
 30
0
 11
3009.655
 21
91598.150
 31
0
  0
LINE
  8
0
 62
7
 10
3292.605
 20
91915.747
 30
0
 11
3292.605
 21
91929.057
 31
0
  0
LINE
  8
0
 62
7
 10
3292.605
 20
91929.057
 30
0
 11
3305.915
 21
91929.057
 31
0
  0
LINE
  8
0
 62
7
 10
3305.915
 20
91929.057
 30
0
 11
3305.915
 21
91915.747
 31
0
  0
LINE
  8
0
 62
7
 10
3305.915
 20
91915.747
 30
0
 11
3292.605
 21
91915.747
 31
0
999
- - - Line Data - - -
  0
LINE
  8
0
 62
4
 10
0.000
 20
89314.219
 30
0
 11
542.910
 21
89450.420
 31
0
  0
LINE
  8
0
 62
4
 10
542.910
 20
89450.420
 30
0
 11
748.290
 21
89480.635
 31
0
  0
LINE
  8
0
 62
4
 10
748.290
 20
89480.635
 30
0
 11
795.620
 21
89568.535
 31
0
  0
LINE
  8
0
 62
4
 10
795.620
 20
89568.535
 30
0
 11
835.620
 21
89621.855
 31
0
  0
LINE
  8
0
 62
4
 10
835.620
 20
89621.855
 30
0
 11
863.620
 21
89621.855
 31
0
  0
LINE
  8
0
 62
4
 10
863.620
 20
89621.855
 30
0
 11
999.840
 21
89728.076
 31
0
  0
LINE
  8
0
 62
4
 10
999.840
 20
89728.076
 30
0
 11
1246.580
 21
89864.268
 31
0
  0
LINE
  8
0
 62
4
 10
1246.580
 20
89864.268
 30
0
 11
1262.630
 21
89877.783
 31
0
  0
LINE
  8
0
 62
4
 10
1262.630
 20
89877.783
 30
0
 11
1438.670
 21
89994.785
 31
0
  0
LINE
  8
0
 62
4
 10
1438.670
 20
89994.785
 30
0
 11
1576.360
 21
90110.176
 31
0
  0
LINE
  8
0
 62
4
 10
1576.360
 20
90110.176
 30
0
 11
1653.170
 21
90143.389
 31
0
  0
LINE
  8
0
 62
4
 10
1653.170
 20
90143.389
 30
0
 11
1771.840
 21
90197.676
 31
0
  0
LINE
  8
0
 62
4
 10
1771.840
 20
90197.676
 30
0
 11
2065.180
 21
90646.191
 31
0
  0
LINE
  8
0
 62
4
 10
2065.180
 20
90646.191
 30
0
 11
2118.050
 21
90685.010
 31
0
  0
LINE
  8
0
 62
4
 10
2118.050
 20
90685.010
 30
0
 11
2221.020
 21
90735.117
 31
0
  0
LINE
  8
0
 62
4
 10
2221.020
 20
90735.117
 30
0
 11
2400.710
 21
90873.760
 31
0
  0
LINE
  8
0
 62
4
 10
2400.710
 20
90873.760
 30
0
 11
2478.740
 21
91020.000
 31
0
  0
LINE
  8
0
 62
4
 10
2478.740
 20
91020.000
 30
0
 11
2494.340
 21
91037.090
 31
0
  0
LINE
  8
0
 62
4
 10
2494.340
 20
91037.090
 30
0
 11
2503.940
 21
91035.801
 31
0
  0
LINE
  8
0
 62
4
 10
2503.940
 20
91035.801
 30
0
 11
2513.540
 21
90959.668
 31
0
  0
LINE
  8
0
 62
4
 10
2513.540
 20
90959.668
 30
0
 11
2523.140
 21
90965.879
 31
0
  0
LINE
  8
0
 62
4
 10
2523.140
 20
90965.879
 30
0
 11
2532.740
 21
90972.139
 31
0
  0
LINE
  8
0
 62
4
 10
2532.740
 20
90972.139
 30
0
 11
2542.340
 21
90978.506
 31
0
  0
LINE
  8
0
 62
4
 10
2542.340
 20
90978.506
 30
0
 11
2551.940
 21
90984.951
 31
0
  0
LINE
  8
0
 62
4
 10
2551.940
 20
90984.951
 30
0
 11
2561.540
 21
90991.494
 31
0
  0
LINE
  8
0
 62
4
 10
2561.540
 20
90991.494
 30
0
 11
2571.140
 21
90998.184
 31
0
  0
LINE
  8
0
 62
4
 10
2571.140
 20
90998.184
 30
0
 11
2580.740
 21
91005.049
 31
0
  0
LINE
  8
0
 62
4
 10
2580.740
 20
91005.049
 30
0
 11
2590.340
 21
91012.129
 31
0
  0
LINE
  8
0
 62
4
 10
2590.340
 20
91012.129
 30
0
 11
2599.940
 21
91019.521
 31
0
  0
LINE
  8
0
 62
4
 10
2599.940
 20
91019.521
 30
0
 11
2609.540
 21
91027.344
 31
0
  0
LINE
  8
0
 62
4
 10
2609.540
 20
91027.344
 30
0
 11
2619.140
 21
91035.898
 31
0
  0
LINE
  8
0
 62
4
 10
2619.140
 20
91035.898
 30
0
 11
2628.740
 21
91045.879
 31
0
  0
LINE
  8
0
 62
4
 10
2628.740
 20
91045.879
 30
0
 11
2638.340
 21
91065.068
 31
0
  0
LINE
  8
0
 62
4
 10
2638.340
 20
91065.068
 30
0
 11
2641.340
 21
91106.758
 31
0
  0
LINE
  8
0
 62
4
 10
2641.340
 20
91106.758
 30
0
 11
2731.380
 21
91197.793
 31
0
  0
LINE
  8
0
 62
4
 10
2731.380
 20
91197.793
 30
0
 11
2820.500
 21
91362.139
 31
0
  0
LINE
  8
0
 62
4
 10
2820.500
 20
91362.139
 30
0
 11
3016.310
 21
91613.770
 31
0
  0
LINE
  8
0
 62
4
 10
3016.310
 20
91613.770
 30
0
 11
3299.260
 21
92039.385
 31
0
999
- - - Line Data - - -
  0
LINE
  8
0
 62
4
 10
0.000
 20
89332.061
 30
0
 11
542.910
 21
89474.600
 31
0
  0
LINE
  8
0
 62
4
 10
542.910
 20
89474.600
 30
0
 11
748.290
 21
89503.594
 31
0
  0
LINE
  8
0
 62
4
 10
748.290
 20
89503.594
 30
0
 11
795.620
 21
89580.811
 31
0
  0
LINE
  8
0
 62
4
 10
795.620
 20
89580.811
 30
0
 11
835.620
 21
89639.893
 31
0
  0
LINE
  8
0
 62
4
 10
835.620
 20
89639.893
 30
0
 11
863.620
 21
89639.893
 31
0
  0
LINE
  8
0
 62
4
 10
863.620
 20
89639.893
 30
0
 11
999.840
 21
89740.938
 31
0
  0
LINE
  8
0
 62
4
 10
999.840
 20
89740.938
 30
0
 11
1246.580
 21
89874.961
 31
0
  0
LINE
  8
0
 62
4
 10
1246.580
 20
89874.961
 30
0
 11
1262.630
 21
89886.445
 31
0
  0
LINE
  8
0
 62
4
 10
1262.630
 20
89886.445
 30
0
 11
1438.670
 21
90034.922
 31
0
  0
LINE
  8
0
 62
4
 10
1438.670
 20
90034.922
 30
0
 11
1576.360
 21
90161.768
 31
0
  0
LINE
  8
0
 62
4
 10
1576.360
 20
90161.768
 30
0
 11
1653.170
 21
90200.723
 31
0
  0
LINE
  8
0
 62
4
 10
1653.170
 20
90200.723
 30
0
 11
1771.840
 21
90277.793
 31
0
  0
LINE
  8
0
 62
4
 10
1771.840
 20
90277.793
 30
0
 11
2065.180
 21
90700.850
 31
0
  0
LINE
  8
0
 62
4
 10
2065.180
 20
90700.850
 30
0
 11
2118.050
 21
90742.529
 31
0
  0
LINE
  8
0
 62
4
 10
2118.050
 20
90742.529
 30
0
 11
2221.020
 21
90776.328
 31
0
  0
LINE
  8
0
 62
4
 10
2221.020
 20
90776.328
 30
0
 11
2400.710
 21
90924.609
 31
0
  0
LINE
  8
0
 62
4
 10
2400.710
 20
90924.609
 30
0
 11
2478.740
 21
91097.852
 31
0
  0
LINE
  8
0
 62
4
 10
2478.740
 20
91097.852
 30
0
 11
2494.340
 21
91061.201
 31
0
  0
LINE
  8
0
 62
4
 10
2494.340
 20
91061.201
 30
0
 11
2503.940
 21
91066.885
 31
0
  0
LINE
  8
0
 62
4
 10
2503.940
 20
91066.885
 30
0
 11
2513.540
 21
91072.559
 31
0
  0
LINE
  8
0
 62
4
 10
2513.540
 20
91072.559
 30
0
 11
2523.140
 21
91078.242
 31
0
  0
LINE
  8
0
 62
4
 10
2523.140
 20
91078.242
 30
0
 11
2532.740
 21
91083.916
 31
0
  0
LINE
  8
0
 62
4
 10
2532.740
 20
91083.916
 30
0
 11
2542.340
 21
91089.600
 31
0
  0
LINE
  8
0
 62
4
 10
2542.340
 20
91089.600
 30
0
 11
2551.940
 21
91095.283
 31
0
  0
LINE
  8
0
 62
4
 10
2551.940
 20
91095.283
 30
0
 11
2561.540
 21
91100.957
 31
0
  0
LINE
  8
0
 62
4
 10
2561.540
 20
91100.957
 30
0
 11
2571.140
 21
91106.641
 31
0
  0
LINE
  8
0
 62
4
 10
2571.140
 20
91106.641
 30
0
 11
2580.740
 21
91112.314
 31
0
  0
LINE
  8
0
 62
4
 10
2580.740
 20
91112.314
 30
0
 11
2590.340
 21
91117.998
 31
0
  0
LINE
  8
0
 62
4
 10
2590.340
 20
91117.998
 30
0
 11
2599.940
 21
91123.682
 31
0
  0
LINE
  8
0
 62
4
 10
2599.940
 20
91123.682
 30
0
 11
2609.540
 21
91129.355
 31
0
  0
LINE
  8
0
 62
4
 10
2609.540
 20
91129.355
 30
0
 11
2619.140
 21
91135.039
 31
0
  0
LINE
  8
0
 62
4
 10
2619.140
 20
91135.039
 30
0
 11
2628.740
 21
91140.713
 31
0
  0
LINE
  8
0
 62
4
 10
2628.740
 20
91140.713
 30
0
 11
2638.340
 21
91146.396
 31
0
  0
LINE
  8
0
 62
4
 10
2638.340
 20
91146.396
 30
0
 11
2641.340
 21
91248.643
 31
0
  0
LINE
  8
0
 62
4
 10
2641.340
 20
91248.643
 30
0
 11
2731.380
 21
91276.221
 31
0
  0
LINE
  8
0
 62
4
 10
2731.380
 20
91276.221
 30
0
 11
2820.500
 21
91428.691
 31
0
  0
LINE
  8
0
 62
4
 10
2820.500
 20
91428.691
 30
0
 11
3016.310
 21
91655.781
 31
0
  0
LINE
  8
0
 62
4
 10
3016.310
 20
91655.781
 30
0
 11
3299.260
 21
92094.834
 31
0
999
- - - Symbol Data - - -
  0
LINE
  8
0
 62
4
 10
-6.655
 20
89327.624
 30
0
 11
6.655
 21
89327.624
 31
0
  0
LINE
  8
0
 62
4
 10
0.000
 20
89340.934
 30
0
 11
6.655
 21
89327.624
 31
0
  0
LINE
  8
0
 62
4
 10
0.000
 20
89340.934
 30
0
 11
-6.655
 21
89327.624
 31
0
  0
LINE
  8
0
 62
4
 10
536.255
 20
89470.163
 30
0
 11
549.565
 21
89470.163
 31
0
  0
LINE
  8
0
 62
4
 10
542.910
 20
89483.473
 30
0
 11
549.565
 21
89470.163
 31
0
  0
LINE
  8
0
 62
4
 10
542.910
 20
89483.473
 30
0
 11
536.255
 21
89470.163
 31
0
  0
LINE
  8
0
 62
4
 10
741.635
 20
89499.157
 30
0
 11
754.945
 21
89499.157
 31
0
  0
LINE
  8
0
 62
4
 10
748.290
 20
89512.467
 30
0
 11
754.945
 21
89499.157
 31
0
  0
LINE
  8
0
 62
4
 10
748.290
 20
89512.467
 30
0
 11
741.635
 21
89499.157
 31
0
  0
LINE
  8
0
 62
4
 10
788.965
 20
89576.374
 30
0
 11
802.275
 21
89576.374
 31
0
  0
LINE
  8
0
 62
4
 10
795.620
 20
89589.684
 30
0
 11
802.275
 21
89576.374
 31
0
  0
LINE
  8
0
 62
4
 10
795.620
 20
89589.684
 30
0
 11
788.965
 21
89576.374
 31
0
  0
LINE
  8
0
 62
4
 10
828.965
 20
89635.456
 30
0
 11
842.275
 21
89635.456
 31
0
  0
LINE
  8
0
 62
4
 10
835.620
 20
89648.766
 30
0
 11
842.275
 21
89635.456
 31
0
  0
LINE
  8
0
 62
4
 10
835.620
 20
89648.766
 30
0
 11
828.965
 21
89635.456
 31
0
  0
LINE
  8
0
 62
4
 10
856.965
 20
89635.456
 30
0
 11
870.275
 21
89635.456
 31
0
  0
LINE
  8
0
 62
4
 10
863.620
 20
89648.766
 30
0
 11
870.275
 21
89635.456
 31
0
  0
LINE
  8
0
 62
4
 10
863.620
 20
89648.766
 30
0
 11
856.965
 21
89635.456
 31
0
  0
LINE
  8
0
 62
4
 10
993.185
 20
89736.501
 30
0
 11
1006.495
 21
89736.501
 31
0
  0
LINE
  8
0
 62
4
 10
999.840
 20
89749.811
 30
0
 11
1006.495
 21
89736.501
 31
0
  0
LINE
  8
0
 62
4
 10
999.840
 20
89749.811
 30
0
 11
993.185
 21
89736.501
 31
0
  0
LINE
  8
0
 62
4
 10
1239.925
 20
89870.524
 30
0
 11
1253.235
 21
89870.524
 31
0
  0
LINE
  8
0
 62
4
 10
1246.580
 20
89883.834
 30
0
 11
1253.235
 21
89870.524
 31
0
  0
LINE
  8
0
 62
4
 10
1246.580
 20
89883.834
 30
0
 11
1239.925
 21
89870.524
 31
0
  0
LINE
  8
0
 62
4
 10
1255.975
 20
89882.009
 30
0
 11
1269.285
 21
89882.009
 31
0
  0
LINE
  8
0
 62
4
 10
1262.630
 20
89895.319
 30
0
 11
1269.285
 21
89882.009
 31
0
  0
LINE
  8
0
 62
4
 10
1262.630
 20
89895.319
 30
0
 11
1255.975
 21
89882.009
 31
0
  0
LINE
  8
0
 62
4
 10
1432.015
 20
90030.485
 30
0
 11
1445.325
 21
90030.485
 31
0
  0
LINE
  8
0
 62
4
 10
1438.670
 20
90043.795
 30
0
 11
1445.325
 21
90030.485
 31
0
  0
LINE
  8
0
 62
4
 10
1438.670
 20
90043.795
 30
0
 11
1432.015
 21
90030.485
 31
0
  0
LINE
  8
0
 62
4
 10
1569.705
 20
90157.331
 30
0
 11
1583.015
 21
90157.331
 31
0
  0
LINE
  8
0
 62
4
 10
1576.360
 20
90170.641
 30
0
 11
1583.015
 21
90157.331
 31
0
  0
LINE
  8
0
 62
4
 10
1576.360
 20
90170.641
 30
0
 11
1569.705
 21
90157.331
 31
0
  0
LINE
  8
0
 62
4
 10
1646.515
 20
90196.286
 30
0
 11
1659.825
 21
90196.286
 31
0
  0
LINE
  8
0
 62
4
 10
1653.170
 20
90209.596
 30
0
 11
1659.825
 21
90196.286
 31
0
  0
LINE
  8
0
 62
4
 10
1653.170
 20
90209.596
 30
0
 11
1646.515
 21
90196.286
 31
0
  0
LINE
  8
0
 62
4
 10
1765.185
 20
90273.356
 30
0
 11
1778.495
 21
90273.356
 31
0
  0
LINE
  8
0
 62
4
 10
1771.840
 20
90286.666
 30
0
 11
1778.495
 21
90273.356
 31
0
  0
LINE
  8
0
 62
4
 10
1771.840
 20
90286.666
 30
0
 11
1765.185
 21
90273.356
 31
0
  0
LINE
  8
0
 62
4
 10
2058.525
 20
90696.413
 30
0
 11
2071.835
 21
90696.413
 31
0
  0
LINE
  8
0
 62
4
 10
2065.180
 20
90709.723
 30
0
 11
2071.835
 21
90696.413
 31
0
  0
LINE
  8
0
 62
4
 10
2065.180
 20
90709.723
 30
0
 11
2058.525
 21
90696.413
 31
0
  0
LINE
  8
0
 62
4
 10
2111.395
 20
90738.093
 30
0
 11
2124.705
 21
90738.093
 31
0
  0
LINE
  8
0
 62
4
 10
2118.050
 20
90751.403
 30
0
 11
2124.705
 21
90738.093
 31
0
  0
LINE
  8
0
 62
4
 10
2118.050
 20
90751.403
 30
0
 11
2111.395
 21
90738.093
 31
0
  0
LINE
  8
0
 62
4
 10
2214.365
 20
90771.891
 30
0
 11
2227.675
 21
90771.891
 31
0
  0
LINE
  8
0
 62
4
 10
2221.020
 20
90785.202
 30
0
 11
2227.675
 21
90771.891
 31
0
  0
LINE
  8
0
 62
4
 10
2221.020
 20
90785.202
 30
0
 11
2214.365
 21
90771.891
 31
0
  0
LINE
  8
0
 62
4
 10
2394.055
 20
90920.173
 30
0
 11
2407.365
 21
90920.173
 31
0
  0
LINE
  8
0
 62
4
 10
2400.710
 20
90933.483
 30
0
 11
2407.365
 21
90920.173
 31
0
  0
LINE
  8
0
 62
4
 10
2400.710
 20
90933.483
 30
0
 11
2394.055
 21
90920.173
 31
0
  0
LINE
  8
0
 62
4
 10
2472.085
 20
91093.415
 30
0
 11
2485.395
 21
91093.415
 31
0
  0
LINE
  8
0
 62
4
 10
2478.740
 20
91106.725
 30
0
 11
2485.395
 21
91093.415
 31
0
  0
LINE
  8
0
 62
4
 10
2478.740
 20
91106.725
 30
0
 11
2472.085
 21
91093.415
 31
0
  0
LINE
  8
0
 62
4
 10
2487.685
 20
91056.764
 30
0
 11
2500.995
 21
91056.764
 31
0
  0
LINE
  8
0
 62
4
 10
2494.340
 20
91070.075
 30
0
 11
2500.995
 21
91056.764
 31
0
  0
LINE
  8
0
 62
4
 10
2494.340
 20
91070.075
 30
0
 11
2487.685
 21
91056.764
 31
0
  0
LINE
  8
0
 62
4
 10
2497.285
 20
91062.448
 30
0
 11
2510.595
 21
91062.448
 31
0
  0
LINE
  8
0
 62
4
 10
2503.940
 20
91075.758
 30
0
 11
2510.595
 21
91062.448
 31
0
  0
LINE
  8
0
 62
4
 10
2503.940
 20
91075.758
 30
0
 11
2497.285
 21
91062.448
 31
0
  0
LINE
  8
0
 62
4
 10
2506.885
 20
91068.122
 30
0
 11
2520.195
 21
91068.122
 31
0
  0
LINE
  8
0
 62
4
 10
2513.540
 20
91081.432
 30
0
 11
2520.195
 21
91068.122
 31
0
  0
LINE
  8
0
 62
4
 10
2513.540
 20
91081.432
 30
0
 11
2506.885
 21
91068.122
 31
0
  0
LINE
  8
0
 62
4
 10
2516.485
 20
91073.805
 30
0
 11
2529.795
 21
91073.805
 31
0
  0
LINE
  8
0
 62
4
 10
2523.140
 20
91087.116
 30
0
 11
2529.795
 21
91073.805
 31
0
  0
LINE
  8
0
 62
4
 10
2523.140
 20
91087.116
 30
0
 11
2516.485
 21
91073.805
 31
0
  0
LINE
  8
0
 62
4
 10
2526.085
 20
91079.479
 30
0
 11
2539.395
 21
91079.479
 31
0
  0
LINE
  8
0
 62
4
 10
2532.740
 20
91092.789
 30
0
 11
2539.395
 21
91079.479
 31
0
  0
LINE
  8
0
 62
4
 10
2532.740
 20
91092.789
 30
0
 11
2526.085
 21
91079.479
 31
0
  0
LINE
  8
0
 62
4
 10
2535.685
 20
91085.163
 30
0
 11
2548.995
 21
91085.163
 31
0
  0
LINE
  8
0
 62
4
 10
2542.340
 20
91098.473
 30
0
 11
2548.995
 21
91085.163
 31
0
  0
LINE
  8
0
 62
4
 10
2542.340
 20
91098.473
 30
0
 11
2535.685
 21
91085.163
 31
0
  0
LINE
  8
0
 62
4
 10
2545.285
 20
91090.846
 30
0
 11
2558.595
 21
91090.846
 31
0
  0
LINE
  8
0
 62
4
 10
2551.940
 20
91104.157
 30
0
 11
2558.595
 21
91090.846
 31
0
  0
LINE
  8
0
 62
4
 10
2551.940
 20
91104.157
 30
0
 11
2545.285
 21
91090.846
 31
0
  0
LINE
  8
0
 62
4
 10
2554.885
 20
91096.520
 30
0
 11
2568.195
 21
91096.520
 31
0
  0
LINE
  8
0
 62
4
 10
2561.540
 20
91109.831
 30
0
 11
2568.195
 21
91096.520
 31
0
  0
LINE
  8
0
 62
4
 10
2561.540
 20
91109.831
 30
0
 11
2554.885
 21
91096.520
 31
0
  0
LINE
  8
0
 62
4
 10
2564.485
 20
91102.204
 30
0
 11
2577.795
 21
91102.204
 31
0
  0
LINE
  8
0
 62
4
 10
2571.140
 20
91115.514
 30
0
 11
2577.795
 21
91102.204
 31
0
  0
LINE
  8
0
 62
4
 10
2571.140
 20
91115.514
 30
0
 11
2564.485
 21
91102.204
 31
0
  0
LINE
  8
0
 62
4
 10
2574.085
 20
91107.878
 30
0
 11
2587.395
 21
91107.878
 31
0
  0
LINE
  8
0
 62
4
 10
2580.740
 20
91121.188
 30
0
 11
2587.395
 21
91107.878
 31
0
  0
LINE
  8
0
 62
4
 10
2580.740
 20
91121.188
 30
0
 11
2574.085
 21
91107.878
 31
0
  0
LINE
  8
0
 62
4
 10
2583.685
 20
91113.561
 30
0
 11
2596.995
 21
91113.561
 31
0
  0
LINE
  8
0
 62
4
 10
2590.340
 20
91126.872
 30
0
 11
2596.995
 21
91113.561
 31
0
  0
LINE
  8
0
 62
4
 10
2590.340
 20
91126.872
 30
0
 11
2583.685
 21
91113.561
 31
0
  0
LINE
  8
0
 62
4
 10
2593.285
 20
91119.245
 30
0
 11
2606.595
 21
91119.245
 31
0
  0
LINE
  8
0
 62
4
 10
2599.940
 20
91132.555
 30
0
 11
2606.595
 21
91119.245
 31
0
  0
LINE
  8
0
 62
4
 10
2599.940
 20
91132.555
 30
0
 11
2593.285
 21
91119.245
 31
0
  0
LINE
  8
0
 62
4
 10
2602.885
 20
91124.919
 30
0
 11
2616.195
 21
91124.919
 31
0
  0
LINE
  8
0
 62
4
 10
2609.540
 20
91138.229
 30
0
 11
2616.195
 21
91124.919
 31
0
  0
LINE
  8
0
 62
4
 10
2609.540
 20
91138.229
 30
0
 11
2602.885
 21
91124.919
 31
0
  0
LINE
  8
0
 62
4
 10
2612.485
 20
91130.602
 30
0
 11
2625.795
 21
91130.602
 31
0
  0
LINE
  8
0
 62
4
 10
2619.140
 20
91143.913
 30
0
 11
2625.795
 21
91130.602
 31
0
  0
LINE
  8
0
 62
4
 10
2619.140
 20
91143.913
 30
0
 11
2612.485
 21
91130.602
 31
0
  0
LINE
  8
0
 62
4
 10
2622.085
 20
91136.276
 30
0
 11
2635.395
 21
91136.276
 31
0
  0
LINE
  8
0
 62
4
 10
2628.740
 20
91149.586
 30
0
 11
2635.395
 21
91136.276
 31
0
  0
LINE
  8
0
 62
4
 10
2628.740
 20
91149.586
 30
0
 11
2622.085
 21
91136.276
 31
0
  0
LINE
  8
0
 62
4
 10
2631.685
 20
91141.960
 30
0
 11
2644.995
 21
91141.960
 31
0
  0
LINE
  8
0
 62
4
 10
2638.340
 20
91155.270
 30
0
 11
2644.995
 21
91141.960
 31
0
  0
LINE
  8
0
 62
4
 10
2638.340
 20
91155.270
 30
0
 11
2631.685
 21
91141.960
 31
0
  0
LINE
  8
0
 62
4
 10
2634.685
 20
91244.206
 30
0
 11
2647.995
 21
91244.206
 31
0
  0
LINE
  8
0
 62
4
 10
2641.340
 20
91257.516
 30
0
 11
2647.995
 21
91244.206
 31
0
  0
LINE
  8
0
 62
4
 10
2641.340
 20
91257.516
 30
0
 11
2634.685
 21
91244.206
 31
0
  0
LINE
  8
0
 62
4
 10
2724.725
 20
91271.784
 30
0
 11
2738.035
 21
91271.784
 31
0
  0
LINE
  8
0
 62
4
 10
2731.380
 20
91285.094
 30
0
 11
2738.035
 21
91271.784
 31
0
  0
LINE
  8
0
 62
4
 10
2731.380
 20
91285.094
 30
0
 11
2724.725
 21
91271.784
 31
0
  0
LINE
  8
0
 62
4
 10
2813.845
 20
91424.255
 30
0
 11
2827.155
 21
91424.255
 31
0
  0
LINE
  8
0
 62
4
 10
2820.500
 20
91437.565
 30
0
 11
2827.155
 21
91424.255
 31
0
  0
LINE
  8
0
 62
4
 10
2820.500
 20
91437.565
 30
0
 11
2813.845
 21
91424.255
 31
0
  0
LINE
  8
0
 62
4
 10
3009.655
 20
91651.345
 30
0
 11
3022.965
 21
91651.345
 31
0
  0
LINE
  8
0
 62
4
 10
3016.310
 20
91664.655
 30
0
 11
3022.965
 21
91651.345
 31
0
  0
LINE
  8
0
 62
4
 10
3016.310
 20
91664.655
 30
0
 11
3009.655
 21
91651.345
 31
0
  0
LINE
  8
0
 62
4
 10
3292.605
 20
92090.397
 30
0
 11
3305.915
 21
92090.397
 31
0
  0
LINE
  8
0
 62
4
 10
3299.260
 20
92103.707
 30
0
 11
3305.915
 21
92090.397
 31
0
  0
LINE
  8
0
 62
4
 10
3299.260
 20
92103.707
 30
0
 11
3292.605
 21
92090.397
 31
0
999
- - - Line Data - - -
  0
LINE
  8
0
 62
4
 10
0.000
 20
89333.662
 30
0
 11
542.910
 21
89476.631
 31
0
  0
LINE
  8
0
 62
4
 10
542.910
 20
89476.631
 30
0
 11
748.290
 21
89505.439
 31
0
  0
LINE
  8
0
 62
4
 10
748.290
 20
89505.439
 30
0
 11
795.620
 21
89581.582
 31
0
  0
LINE
  8
0
 62
4
 10
795.620
 20
89581.582
 30
0
 11
835.620
 21
89640.469
 31
0
  0
LINE
  8
0
 62
4
 10
835.620
 20
89640.469
 30
0
 11
863.620
 21
89640.469
 31
0
  0
LINE
  8
0
 62
4
 10
863.620
 20
89640.469
 30
0
 11
999.840
 21
89742.520
 31
0
  0
LINE
  8
0
 62
4
 10
999.840
 20
89742.520
 30
0
 11
1246.580
 21
89875.723
 31
0
  0
LINE
  8
0
 62
4
 10
1246.580
 20
89875.723
 30
0
 11
1262.630
 21
89887.266
 31
0
  0
LINE
  8
0
 62
4
 10
1262.630
 20
89887.266
 30
0
 11
1438.670
 21
90041.602
 31
0
  0
LINE
  8
0
 62
4
 10
1438.670
 20
90041.602
 30
0
 11
1576.360
 21
90172.305
 31
0
  0
LINE
  8
0
 62
4
 10
1576.360
 20
90172.305
 30
0
 11
1653.170
 21
90213.516
 31
0
  0
LINE
  8
0
 62
4
 10
1653.170
 20
90213.516
 30
0
 11
1771.840
 21
90295.166
 31
0
  0
LINE
  8
0
 62
4
 10
1771.840
 20
90295.166
 30
0
 11
2065.180
 21
90726.611
 31
0
  0
LINE
  8
0
 62
4
 10
2065.180
 20
90726.611
 30
0
 11
2118.050
 21
90772.852
 31
0
  0
LINE
  8
0
 62
4
 10
2118.050
 20
90772.852
 30
0
 11
2221.020
 21
90799.492
 31
0
  0
LINE
  8
0
 62
4
 10
2221.020
 20
90799.492
 30
0
 11
2400.710
 21
90937.041
 31
0
  0
LINE
  8
0
 62
4
 10
2400.710
 20
90937.041
 30
0
 11
2478.740
 21
91123.320
 31
0
  0
LINE
  8
0
 62
4
 10
2478.740
 20
91123.320
 30
0
 11
2494.340
 21
91321.689
 31
0
  0
LINE
  8
0
 62
4
 10
2494.340
 20
91321.689
 30
0
 11
2638.340
 21
91341.602
 31
0
  0
LINE
  8
0
 62
4
 10
2638.340
 20
91341.602
 30
0
 11
2641.340
 21
91341.602
 31
0
  0
LINE
  8
0
 62
4
 10
2641.340
 20
91341.602
 30
0
 11
2731.380
 21
91363.311
 31
0
  0
LINE
  8
0
 62
4
 10
2731.380
 20
91363.311
 30
0
 11
2820.500
 21
91442.217
 31
0
  0
LINE
  8
0
 62
4
 10
2820.500
 20
91442.217
 30
0
 11
3016.310
 21
91678.057
 31
0
  0
LINE
  8
0
 62
4
 10
3016.310
 20
91678.057
 30
0
 11
3299.260
 21
92119.326
 31
0
999
- - - Symbol Data - - -
  0
LINE
  8
0
 62
4
 10
-6.655
 20
89338.099
 30
0
 11
6.655
 21
89338.099
 31
0
  0
LINE
  8
0
 62
4
 10
0.000
 20
89324.789
 30
0
 11
6.655
 21
89338.099
 31
0
  0
LINE
  8
0
 62
4
 10
0.000
 20
89324.789
 30
0
 11
-6.655
 21
89338.099
 31
0
  0
LINE
  8
0
 62
4
 10
536.255
 20
89481.068
 30
0
 11
549.565
 21
89481.068
 31
0
  0
LINE
  8
0
 62
4
 10
542.910
 20
89467.757
 30
0
 11
549.565
 21
89481.068
 31
0
  0
LINE
  8
0
 62
4
 10
542.910
 20
89467.757
 30
0
 11
536.255
 21
89481.068
 31
0
  0
LINE
  8
0
 62
4
 10
741.635
 20
89509.876
 30
0
 11
754.945
 21
89509.876
 31
0
  0
LINE
  8
0
 62
4
 10
748.290
 20
89496.566
 30
0
 11
754.945
 21
89509.876
 31
0
  0
LINE
  8
0
 62
4
 10
748.290
 20
89496.566
 30
0
 11
741.635
 21
89509.876
 31
0
  0
LINE
  8
0
 62
4
 10
788.965
 20
89586.019
 30
0
 11
802.275
 21
89586.019
 31
0
  0
LINE
  8
0
 62
4
 10
795.620
 20
89572.709
 30
0
 11
802.275
 21
89586.019
 31
0
  0
LINE
  8
0
 62
4
 10
795.620
 20
89572.709
 30
0
 11
788.965
 21
89586.019
 31
0
  0
LINE
  8
0
 62
4
 10
828.965
 20
89644.905
 30
0
 11
842.275
 21
89644.905
 31
0
  0
LINE
  8
0
 62
4
 10
835.620
 20
89631.595
 30
0
 11
842.275
 21
89644.905
 31
0
  0
LINE
  8
0
 62
4
 10
835.620
 20
89631.595
 30
0
 11
828.965
 21
89644.905
 31
0
  0
LINE
  8
0
 62
4
 10
856.965
 20
89644.905
 30
0
 11
870.275
 21
89644.905
 31
0
  0
LINE
  8
0
 62
4
 10
863.620
 20
89631.595
 30
0
 11
870.275
 21
89644.905
 31
0
  0
LINE
  8
0
 62
4
 10
863.620
 20
89631.595
 30
0
 11
856.965
 21
89644.905
 31
0
  0
LINE
  8
0
 62
4
 10
993.185
 20
89746.956
 30
0
 11
1006.495
 21
89746.956
 31
0
  0
LINE
  8
0
 62
4
 10
999.840
 20
89733.646
 30
0
 11
1006.495
 21
89746.956
 31
0
  0
LINE
  8
0
 62
4
 10
999.840
 20
89733.646
 30
0
 11
993.185
 21
89746.956
 31
0
  0
LINE
  8
0
 62
4
 10
1239.925
 20
89880.159
 30
0
 11
1253.235
 21
89880.159
 31
0
  0
LINE
  8
0
 62
4
 10
1246.580
 20
89866.849
 30
0
 11
1253.235
 21
89880.159
 31
0
  0
LINE
  8
0
 62
4
 10
1246.580
 20
89866.849
 30
0
 11
1239.925
 21
89880.159
 31
0
  0
LINE
  8
0
 62
4
 10
1255.975
 20
89891.702
 30
0
 11
1269.285
 21
89891.702
 31
0
  0
LINE
  8
0
 62
4
 10
1262.630
 20
89878.392
 30
0
 11
1269.285
 21
89891.702
 31
0
  0
LINE
  8
0
 62
4
 10
1262.630
 20
89878.392
 30
0
 11
1255.975
 21
89891.702
 31
0
  0
LINE
  8
0
 62
4
 10
1432.015
 20
90046.038
 30
0
 11
1445.325
 21
90046.038
 31
0
  0
LINE
  8
0
 62
4
 10
1438.670
 20
90032.728
 30
0
 11
1445.325
 21
90046.038
 31
0
  0
LINE
  8
0
 62
4
 10
1438.670
 20
90032.728
 30
0
 11
1432.015
 21
90046.038
 31
0
  0
LINE
  8
0
 62
4
 10
1569.705
 20
90176.741
 30
0
 11
1583.015
 21
90176.741
 31
0
  0
LINE
  8
0
 62
4
 10
1576.360
 20
90163.431
 30
0
 11
1583.015
 21
90176.741
 31
0
  0
LINE
  8
0
 62
4
 10
1576.360
 20
90163.431
 30
0
 11
1569.705
 21
90176.741
 31
0
  0
LINE
  8
0
 62
4
 10
1646.515
 20
90217.952
 30
0
 11
1659.825
 21
90217.952
 31
0
  0
LINE
  8
0
 62
4
 10
1653.170
 20
90204.642
 30
0
 11
1659.825
 21
90217.952
 31
0
  0
LINE
  8
0
 62
4
 10
1653.170
 20
90204.642
 30
0
 11
1646.515
 21
90217.952
 31
0
  0
LINE
  8
0
 62
4
 10
1765.185
 20
90299.603
 30
0
 11
1778.495
 21
90299.603
 31
0
  0
LINE
  8
0
 62
4
 10
1771.840
 20
90286.293
 30
0
 11
1778.495
 21
90299.603
 31
0
  0
LINE
  8
0
 62
4
 10
1771.840
 20
90286.293
 30
0
 11
1765.185
 21
90299.603
 31
0
  0
LINE
  8
0
 62
4
 10
2058.525
 20
90731.048
 30
0
 11
2071.835
 21
90731.048
 31
0
  0
LINE
  8
0
 62
4
 10
2065.180
 20
90717.738
 30
0
 11
2071.835
 21
90731.048
 31
0
  0
LINE
  8
0
 62
4
 10
2065.180
 20
90717.738
 30
0
 11
2058.525
 21
90731.048
 31
0
  0
LINE
  8
0
 62
4
 10
2111.395
 20
90777.288
 30
0
 11
2124.705
 21
90777.288
 31
0
  0
LINE
  8
0
 62
4
 10
2118.050
 20
90763.978
 30
0
 11
2124.705
 21
90777.288
 31
0
  0
LINE
  8
0
 62
4
 10
2118.050
 20
90763.978
 30
0
 11
2111.395
 21
90777.288
 31
0
  0
LINE
  8
0
 62
4
 10
2214.365
 20
90803.929
 30
0
 11
2227.675
 21
90803.929
 31
0
  0
LINE
  8
0
 62
4
 10
2221.020
 20
90790.619
 30
0
 11
2227.675
 21
90803.929
 31
0
  0
LINE
  8
0
 62
4
 10
2221.020
 20
90790.619
 30
0
 11
2214.365
 21
90803.929
 31
0
  0
LINE
  8
0
 62
4
 10
2394.055
 20
90941.478
 30
0
 11
2407.365
 21
90941.478
 31
0
  0
LINE
  8
0
 62
4
 10
2400.710
 20
90928.168
 30
0
 11
2407.365
 21
90941.478
 31
0
  0
LINE
  8
0
 62
4
 10
2400.710
 20
90928.168
 30
0
 11
2394.055
 21
90941.478
 31
0
  0
LINE
  8
0
 62
4
 10
2472.085
 20
91127.757
 30
0
 11
2485.395
 21
91127.757
 31
0
  0
LINE
  8
0
 62
4
 10
2478.740
 20
91114.447
 30
0
 11
2485.395
 21
91127.757
 31
0
  0
LINE
  8
0
 62
4
 10
2478.740
 20
91114.447
 30
0
 11
2472.085
 21
91127.757
 31
0
  0
LINE
  8
0
 62
4
 10
2487.685
 20
91326.126
 30
0
 11
2500.995
 21
91326.126
 31
0
  0
LINE
  8
0
 62
4
 10
2494.340
 20
91312.816
 30
0
 11
2500.995
 21
91326.126
 31
0
  0
LINE
  8
0
 62
4
 10
2494.340
 20
91312.816
 30
0
 11
2487.685
 21
91326.126
 31
0
  0
LINE
  8
0
 62
4
 10
2631.685
 20
91346.038
 30
0
 11
2644.995
 21
91346.038
 31
0
  0
LINE
  8
0
 62
4
 10
2638.340
 20
91332.728
 30
0
 11
2644.995
 21
91346.038
 31
0
  0
LINE
  8
0
 62
4
 10
2638.340
 20
91332.728
 30
0
 11
2631.685
 21
91346.038
 31
0
  0
LINE
  8
0
 62
4
 10
2634.685
 20
91346.038
 30
0
 11
2647.995
 21
91346.038
 31
0
  0
LINE
  8
0
 62
4
 10
2641.340
 20
91332.728
 30
0
 11
2647.995
 21
91346.038
 31
0
  0
LINE
  8
0
 62
4
 10
2641.340
 20
91332.728
 30
0
 11
2634.685
 21
91346.038
 31
0
  0
LINE
  8
0
 62
4
 10
2724.725
 20
91367.747
 30
0
 11
2738.035
 21
91367.747
 31
0
  0
LINE
  8
0
 62
4
 10
2731.380
 20
91354.437
 30
0
 11
2738.035
 21
91367.747
 31
0
  0
LINE
  8
0
 62
4
 10
2731.380
 20
91354.437
 30
0
 11
2724.725
 21
91367.747
 31
0
  0
LINE
  8
0
 62
4
 10
2813.845
 20
91446.654
 30
0
 11
2827.155
 21
91446.654
 31
0
  0
LINE
  8
0
 62
4
 10
2820.500
 20
91433.343
 30
0
 11
2827.155
 21
91446.654
 31
0
  0
LINE
  8
0
 62
4
 10
2820.500
 20
91433.343
 30
0
 11
2813.845
 21
91446.654
 31
0
  0
LINE
  8
0
 62
4
 10
3009.655
 20
91682.493
 30
0
 11
3022.965
 21
91682.493
 31
0
  0
LINE
  8
0
 62
4
 10
3016.310
 20
91669.183
 30
0
 11
3022.965
 21
91682.493
 31
0
  0
LINE
  8
0
 62
4
 10
3016.310
 20
91669.183
 30
0
 11
3009.655
 21
91682.493
 31
0
  0
LINE
  8
0
 62
4
 10
3292.605
 20
92123.763
 30
0
 11
3305.915
 21
92123.763
 31
0
  0
LINE
  8
0
 62
4
 10
3299.260
 20
92110.453
 30
0
 11
3305.915
 21
92123.763
 31
0
  0
LINE
  8
0
 62
4
 10
3299.260
 20
92110.453
 30
0
 11
3292.605
 21
92123.763
 31
0
999
- - - Line Data - - -
  0
LINE
  8
0
 62
4
 10
0.000
 20
89342.471
 30
0
 11
542.910
 21
89486.777
 31
0
  0
LINE
  8
0
 62
4
 10
542.910
 20
89486.777
 30
0
 11
748.290
 21
89514.795
 31
0
  0
LINE
  8
0
 62
4
 10
748.290
 20
89514.795
 30
0
 11
795.620
 21
89585.664
 31
0
  0
LINE
  8
0
 62
4
 10
795.620
 20
89585.664
 30
0
 11
835.620
 21
89646.445
 31
0
  0
LINE
  8
0
 62
4
 10
835.620
 20
89646.445
 30
0
 11
863.620
 21
89646.445
 31
0
  0
LINE
  8
0
 62
4
 10
863.620
 20
89646.445
 30
0
 11
999.840
 21
89749.141
 31
0
  0
LINE
  8
0
 62
4
 10
999.840
 20
89749.141
 30
0
 11
1246.580
 21
89881.318
 31
0
  0
LINE
  8
0
 62
4
 10
1246.580
 20
89881.318
 30
0
 11
1262.630
 21
89892.168
 31
0
  0
LINE
  8
0
 62
4
 10
1262.630
 20
89892.168
 30
0
 11
1438.670
 21
90054.688
 31
0
  0
LINE
  8
0
 62
4
 10
1438.670
 20
90054.688
 30
0
 11
1576.360
 21
90193.457
 31
0
  0
LINE
  8
0
 62
4
 10
1576.360
 20
90193.457
 30
0
 11
1653.170
 21
90238.193
 31
0
  0
LINE
  8
0
 62
4
 10
1653.170
 20
90238.193
 30
0
 11
1771.840
 21
90326.934
 31
0
  0
LINE
  8
0
 62
4
 10
1771.840
 20
90326.934
 30
0
 11
2065.180
 21
90783.398
 31
0
  0
LINE
  8
0
 62
4
 10
2065.180
 20
90783.398
 30
0
 11
2118.050
 21
90842.754
 31
0
  0
LINE
  8
0
 62
4
 10
2118.050
 20
90842.754
 30
0
 11
2221.020
 21
90863.164
 31
0
  0
LINE
  8
0
 62
4
 10
2221.020
 20
90863.164
 30
0
 11
2400.710
 21
90981.328
 31
0
  0
LINE
  8
0
 62
4
 10
2400.710
 20
90981.328
 30
0
 11
2478.740
 21
91201.172
 31
0
  0
LINE
  8
0
 62
4
 10
2478.740
 20
91201.172
 30
0
 11
2494.340
 21
91361.025
 31
0
  0
LINE
  8
0
 62
4
 10
2494.340
 20
91361.025
 30
0
 11
2638.340
 21
91385.576
 31
0
  0
LINE
  8
0
 62
4
 10
2638.340
 20
91385.576
 30
0
 11
2641.340
 21
91385.576
 31
0
  0
LINE
  8
0
 62
4
 10
2641.340
 20
91385.576
 30
0
 11
2731.380
 21
91430.928
 31
0
  0
LINE
  8
0
 62
4
 10
2731.380
 20
91430.928
 30
0
 11
2820.500
 21
91480.664
 31
0
  0
LINE
  8
0
 62
4
 10
2820.500
 20
91480.664
 30
0
 11
3016.310
 21
91723.545
 31
0
  0
LINE
  8
0
 62
4
 10
3016.310
 20
91723.545
 30
0
 11
3299.260
 21
92168.633
 31
0
999
- - - Symbol Data - - -
  0
LINE
  8
0
 62
4
 10
-6.655
 20
89335.816
 30
0
 11
6.655
 21
89349.126
 31
0
  0
LINE
  8
0
 62
4
 10
-6.655
 20
89349.126
 30
0
 11
6.655
 21
89335.816
 31
0
  0
LINE
  8
0
 62
4
 10
536.255
 20
89480.122
 30
0
 11
549.565
 21
89493.432
 31
0
  0
LINE
  8
0
 62
4
 10
536.255
 20
89493.432
 30
0
 11
549.565
 21
89480.122
 31
0
  0
LINE
  8
0
 62
4
 10
741.635
 20
89508.140
 30
0
 11
754.945
 21
89521.450
 31
0
  0
LINE
  8
0
 62
4
 10
741.635
 20
89521.450
 30
0
 11
754.945
 21
89508.140
 31
0
  0
LINE
  8
0
 62
4
 10
788.965
 20
89579.009
 30
0
 11
802.275
 21
89592.319
 31
0
  0
LINE
  8
0
 62
4
 10
788.965
 20
89592.319
 30
0
 11
802.275
 21
89579.009
 31
0
  0
LINE
  8
0
 62
4
 10
828.965
 20
89639.790
 30
0
 11
842.275
 21
89653.100
 31
0
  0
LINE
  8
0
 62
4
 10
828.965
 20
89653.100
 30
0
 11
842.275
 21
89639.790
 31
0
  0
LINE
  8
0
 62
4
 10
856.965
 20
89639.790
 30
0
 11
870.275
 21
89653.100
 31
0
  0
LINE
  8
0
 62
4
 10
856.965
 20
89653.100
 30
0
 11
870.275
 21
89639.790
 31
0
  0
LINE
  8
0
 62
4
 10
993.185
 20
89742.486
 30
0
 11
1006.495
 21
89755.796
 31
0
  0
LINE
  8
0
 62
4
 10
993.185
 20
89755.796
 30
0
 11
1006.495
 21
89742.486
 31
0
  0
LINE
  8
0
 62
4
 10
1239.925
 20
89874.663
 30
0
 11
1253.235
 21
89887.973
 31
0
  0
LINE
  8
0
 62
4
 10
1239.925
 20
89887.973
 30
0
 11
1253.235
 21
89874.663
 31
0
  0
LINE
  8
0
 62
4
 10
1255.975
 20
89885.513
 30
0
 11
1269.285
 21
89898.823
 31
0
  0
LINE
  8
0
 62
4
 10
1255.975
 20
89898.823
 30
0
 11
1269.285
 21
89885.513
 31
0
  0
LINE
  8
0
 62
4
 10
1432.015
 20
90048.032
 30
0
 11
1445.325
 21
90061.343
 31
0
  0
LINE
  8
0
 62
4
 10
1432.015
 20
90061.343
 30
0
 11
1445.325
 21
90048.032
 31
0
  0
LINE
  8
0
 62
4
 10
1569.705
 20
90186.802
 30
0
 11
1583.015
 21
90200.112
 31
0
  0
LINE
  8
0
 62
4
 10
1569.705
 20
90200.112
 30
0
 11
1583.015
 21
90186.802
 31
0
  0
LINE
  8
0
 62
4
 10
1646.515
 20
90231.538
 30
0
 11
1659.825
 21
90244.848
 31
0
  0
LINE
  8
0
 62
4
 10
1646.515
 20
90244.848
 30
0
 11
1659.825
 21
90231.538
 31
0
  0
LINE
  8
0
 62
4
 10
1765.185
 20
90320.278
 30
0
 11
1778.495
 21
90333.589
 31
0
  0
LINE
  8
0
 62
4
 10
1765.185
 20
90333.589
 30
0
 11
1778.495
 21
90320.278
 31
0
  0
LINE
  8
0
 62
4
 10
2058.525
 20
90776.743
 30
0
 11
2071.835
 21
90790.054
 31
0
  0
LINE
  8
0
 62
4
 10
2058.525
 20
90790.054
 30
0
 11
2071.835
 21
90776.743
 31
0
  0
LINE
  8
0
 62
4
 10
2111.395
 20
90836.099
 30
0
 11
2124.705
 21
90849.409
 31
0
  0
LINE
  8
0
 62
4
 10
2111.395
 20
90849.409
 30
0
 11
2124.705
 21
90836.099
 31
0
  0
LINE
  8
0
 62
4
 10
2214.365
 20
90856.509
 30
0
 11
2227.675
 21
90869.819
 31
0
  0
LINE
  8
0
 62
4
 10
2214.365
 20
90869.819
 30
0
 11
2227.675
 21
90856.509
 31
0
  0
LINE
  8
0
 62
4
 10
2394.055
 20
90974.673
 30
0
 11
2407.365
 21
90987.983
 31
0
  0
LINE
  8
0
 62
4
 10
2394.055
 20
90987.983
 30
0
 11
2407.365
 21
90974.673
 31
0
  0
LINE
  8
0
 62
4
 10
2472.085
 20
91194.517
 30
0
 11
2485.395
 21
91207.827
 31
0
  0
LINE
  8
0
 62
4
 10
2472.085
 20
91207.827
 30
0
 11
2485.395
 21
91194.517
 31
0
  0
LINE
  8
0
 62
4
 10
2487.685
 20
91354.370
 30
0
 11
2500.995
 21
91367.681
 31
0
  0
LINE
  8
0
 62
4
 10
2487.685
 20
91367.681
 30
0
 11
2500.995
 21
91354.370
 31
0
  0
LINE
  8
0
 62
4
 10
2631.685
 20
91378.921
 30
0
 11
2644.995
 21
91392.231
 31
0
  0
LINE
  8
0
 62
4
 10
2631.685
 20
91392.231
 30
0
 11
2644.995
 21
91378.921
 31
0
  0
LINE
  8
0
 62
4
 10
2634.685
 20
91378.921
 30
0
 11
2647.995
 21
91392.231
 31
0
  0
LINE
  8
0
 62
4
 10
2634.685
 20
91392.231
 30
0
 11
2647.995
 21
91378.921
 31
0
  0
LINE
  8
0
 62
4
 10
2724.725
 20
91424.273
 30
0
 11
2738.035
 21
91437.583
 31
0
  0
LINE
  8
0
 62
4
 10
2724.725
 20
91437.583
 30
0
 11
2738.035
 21
91424.273
 31
0
  0
LINE
  8
0
 62
4
 10
2813.845
 20
91474.009
 30
0
 11
2827.155
 21
91487.319
 31
0
  0
LINE
  8
0
 62
4
 10
2813.845
 20
91487.319
 30
0
 11
2827.155
 21
91474.009
 31
0
  0
LINE
  8
0
 62
4
 10
3009.655
 20
91716.890
 30
0
 11
3022.965
 21
91730.200
 31
0
  0
LINE
  8
0
 62
4
 10
3009.655
 20
91730.200
 30
0
 11
3022.965
 21
91716.890
 31
0
  0
LINE
  8
0
 62
4
 10
3292.605
 20
92161.978
 30
0
 11
3305.915
 21
92175.288
 31
0
  0
LINE
  8
0
 62
4
 10
3292.605
 20
92175.288
 30
0
 11
3305.915
 21
92161.978
 31
0
  0
ENDSEC
  0
EOF
