  0
SECTION
  2
ENTITIES
999
- - - Grid Lines - - -
  0
LINE
  8
0
 62
9
 10
0.000
 20
23100.000
 30
0
 11
0.000
 21
22300.000
 31
0
  0
LINE
  8
0
 62
9
 10
500.000
 20
23100.000
 30
0
 11
500.000
 21
22300.000
 31
0
  0
LINE
  8
0
 62
9
 10
1000.000
 20
23100.000
 30
0
 11
1000.000
 21
22300.000
 31
0
  0
LINE
  8
0
 62
9
 10
1500.000
 20
23100.000
 30
0
 11
1500.000
 21
22300.000
 31
0
  0
LINE
  8
0
 62
9
 10
2000.000
 20
23100.000
 30
0
 11
2000.000
 21
22300.000
 31
0
  0
LINE
  8
0
 62
9
 10
2500.000
 20
23100.000
 30
0
 11
2500.000
 21
22300.000
 31
0
  0
LINE
  8
0
 62
9
 10
3000.000
 20
23100.000
 30
0
 11
3000.000
 21
22300.000
 31
0
  0
LINE
  8
0
 62
9
 10
3500.000
 20
23100.000
 30
0
 11
3500.000
 21
22300.000
 31
0
  0
LINE
  8
0
 62
9
 10
0.000
 20
22300.000
 30
0
 11
3500.000
 21
22300.000
 31
0
  0
LINE
  8
0
 62
9
 10
0.000
 20
22400.000
 30
0
 11
3500.000
 21
22400.000
 31
0
  0
LINE
  8
0
 62
9
 10
0.000
 20
22500.000
 30
0
 11
3500.000
 21
22500.000
 31
0
  0
LINE
  8
0
 62
9
 10
0.000
 20
22600.000
 30
0
 11
3500.000
 21
22600.000
 31
0
  0
LINE
  8
0
 62
9
 10
0.000
 20
22700.000
 30
0
 11
3500.000
 21
22700.000
 31
0
  0
LINE
  8
0
 62
9
 10
0.000
 20
22800.000
 30
0
 11
3500.000
 21
22800.000
 31
0
  0
LINE
  8
0
 62
9
 10
0.000
 20
22900.000
 30
0
 11
3500.000
 21
22900.000
 31
0
  0
LINE
  8
0
 62
9
 10
0.000
 20
23000.000
 30
0
 11
3500.000
 21
23000.000
 31
0
  0
LINE
  8
0
 62
9
 10
0.000
 20
23100.000
 30
0
 11
3500.000
 21
23100.000
 31
0
  0
LINE
  8
0
 62
9
 10
100.000
 20
23100.000
 30
0
 11
100.000
 21
22300.000
 31
0
  0
LINE
  8
0
 62
9
 10
200.000
 20
23100.000
 30
0
 11
200.000
 21
22300.000
 31
0
  0
LINE
  8
0
 62
9
 10
300.000
 20
23100.000
 30
0
 11
300.000
 21
22300.000
 31
0
  0
LINE
  8
0
 62
9
 10
400.000
 20
23100.000
 30
0
 11
400.000
 21
22300.000
 31
0
  0
LINE
  8
0
 62
9
 10
600.000
 20
23100.000
 30
0
 11
600.000
 21
22300.000
 31
0
  0
LINE
  8
0
 62
9
 10
700.000
 20
23100.000
 30
0
 11
700.000
 21
22300.000
 31
0
  0
LINE
  8
0
 62
9
 10
800.000
 20
23100.000
 30
0
 11
800.000
 21
22300.000
 31
0
  0
LINE
  8
0
 62
9
 10
900.000
 20
23100.000
 30
0
 11
900.000
 21
22300.000
 31
0
  0
LINE
  8
0
 62
9
 10
1100.000
 20
23100.000
 30
0
 11
1100.000
 21
22300.000
 31
0
  0
LINE
  8
0
 62
9
 10
1200.000
 20
23100.000
 30
0
 11
1200.000
 21
22300.000
 31
0
  0
LINE
  8
0
 62
9
 10
1300.000
 20
23100.000
 30
0
 11
1300.000
 21
22300.000
 31
0
  0
LINE
  8
0
 62
9
 10
1400.000
 20
23100.000
 30
0
 11
1400.000
 21
22300.000
 31
0
  0
LINE
  8
0
 62
9
 10
1600.000
 20
23100.000
 30
0
 11
1600.000
 21
22300.000
 31
0
  0
LINE
  8
0
 62
9
 10
1700.000
 20
23100.000
 30
0
 11
1700.000
 21
22300.000
 31
0
  0
LINE
  8
0
 62
9
 10
1800.000
 20
23100.000
 30
0
 11
1800.000
 21
22300.000
 31
0
  0
LINE
  8
0
 62
9
 10
1900.000
 20
23100.000
 30
0
 11
1900.000
 21
22300.000
 31
0
  0
LINE
  8
0
 62
9
 10
2100.000
 20
23100.000
 30
0
 11
2100.000
 21
22300.000
 31
0
  0
LINE
  8
0
 62
9
 10
2200.000
 20
23100.000
 30
0
 11
2200.000
 21
22300.000
 31
0
  0
LINE
  8
0
 62
9
 10
2300.000
 20
23100.000
 30
0
 11
2300.000
 21
22300.000
 31
0
  0
LINE
  8
0
 62
9
 10
2400.000
 20
23100.000
 30
0
 11
2400.000
 21
22300.000
 31
0
  0
LINE
  8
0
 62
9
 10
2600.000
 20
23100.000
 30
0
 11
2600.000
 21
22300.000
 31
0
  0
LINE
  8
0
 62
9
 10
2700.000
 20
23100.000
 30
0
 11
2700.000
 21
22300.000
 31
0
  0
LINE
  8
0
 62
9
 10
2800.000
 20
23100.000
 30
0
 11
2800.000
 21
22300.000
 31
0
  0
LINE
  8
0
 62
9
 10
2899.999
 20
23100.000
 30
0
 11
2899.999
 21
22300.000
 31
0
  0
LINE
  8
0
 62
9
 10
3100.000
 20
23100.000
 30
0
 11
3100.000
 21
22300.000
 31
0
  0
LINE
  8
0
 62
9
 10
3200.000
 20
23100.000
 30
0
 11
3200.000
 21
22300.000
 31
0
  0
LINE
  8
0
 62
9
 10
3300.000
 20
23100.000
 30
0
 11
3300.000
 21
22300.000
 31
0
  0
LINE
  8
0
 62
9
 10
3400.000
 20
23100.000
 30
0
 11
3400.000
 21
22300.000
 31
0
  0
LINE
  8
0
 62
9
 10
0.000
 20
22350.000
 30
0
 11
3500.000
 21
22350.000
 31
0
  0
LINE
  8
0
 62
9
 10
0.000
 20
22450.000
 30
0
 11
3500.000
 21
22450.000
 31
0
  0
LINE
  8
0
 62
9
 10
0.000
 20
22550.000
 30
0
 11
3500.000
 21
22550.000
 31
0
  0
LINE
  8
0
 62
9
 10
0.000
 20
22650.000
 30
0
 11
3500.000
 21
22650.000
 31
0
  0
LINE
  8
0
 62
9
 10
0.000
 20
22750.000
 30
0
 11
3500.000
 21
22750.000
 31
0
  0
LINE
  8
0
 62
9
 10
0.000
 20
22850.000
 30
0
 11
3500.000
 21
22850.000
 31
0
  0
LINE
  8
0
 62
9
 10
0.000
 20
22950.000
 30
0
 11
3500.000
 21
22950.000
 31
0
  0
LINE
  8
0
 62
9
 10
0.000
 20
23050.000
 30
0
 11
3500.000
 21
23050.000
 31
0
  0
LINE
  8
0
 62
7
 10
0.000
 20
22300.000
 30
0
 11
0.000
 21
23100.000
 31
0
  0
LINE
  8
0
 62
7
 10
0.000
 20
23100.000
 30
0
 11
3500.000
 21
23100.000
 31
0
  0
LINE
  8
0
 62
7
 10
3500.000
 20
23100.000
 30
0
 11
3500.000
 21
22300.000
 31
0
  0
LINE
  8
0
 62
7
 10
3500.000
 20
22300.000
 30
0
 11
0.000
 21
22300.000
 31
0
999
- - - Axis - - -
  0
LINE
  8
0
 62
7
 10
0.000
 20
22300.000
 30
0
 11
0.000
 21
23100.000
 31
0
  0
LINE
  8
0
 62
7
 10
0.000
 20
22300.000
 30
0
 11
3500.000
 21
22300.000
 31
0
  0
LINE
  8
0
 62
7
 10
0.000
 20
22300.000
 30
0
 11
0.000
 21
22295.267
 31
0
  0
Text
  8
0
 10
0.000
 20
22292.901
 30
0
 40
11.83131
 50
0
  1
0
 72
1
 11
0.000
 21
22292.901
 31
0
 73
3
  0
LINE
  8
0
 62
7
 10
500.000
 20
22300.000
 30
0
 11
500.000
 21
22295.267
 31
0
  0
Text
  8
0
 10
500.000
 20
22292.901
 30
0
 40
11.83131
 50
0
  1
500
 72
1
 11
500.000
 21
22292.901
 31
0
 73
3
  0
LINE
  8
0
 62
7
 10
1000.000
 20
22300.000
 30
0
 11
1000.000
 21
22295.267
 31
0
  0
Text
  8
0
 10
1000.000
 20
22292.901
 30
0
 40
11.83131
 50
0
  1
1000
 72
1
 11
1000.000
 21
22292.901
 31
0
 73
3
  0
LINE
  8
0
 62
7
 10
1500.000
 20
22300.000
 30
0
 11
1500.000
 21
22295.267
 31
0
  0
Text
  8
0
 10
1500.000
 20
22292.901
 30
0
 40
11.83131
 50
0
  1
1500
 72
1
 11
1500.000
 21
22292.901
 31
0
 73
3
  0
LINE
  8
0
 62
7
 10
2000.000
 20
22300.000
 30
0
 11
2000.000
 21
22295.267
 31
0
  0
Text
  8
0
 10
2000.000
 20
22292.901
 30
0
 40
11.83131
 50
0
  1
2000
 72
1
 11
2000.000
 21
22292.901
 31
0
 73
3
  0
LINE
  8
0
 62
7
 10
2500.000
 20
22300.000
 30
0
 11
2500.000
 21
22295.267
 31
0
  0
Text
  8
0
 10
2500.000
 20
22292.901
 30
0
 40
11.83131
 50
0
  1
2500
 72
1
 11
2500.000
 21
22292.901
 31
0
 73
3
  0
LINE
  8
0
 62
7
 10
3000.000
 20
22300.000
 30
0
 11
3000.000
 21
22295.267
 31
0
  0
Text
  8
0
 10
3000.000
 20
22292.901
 30
0
 40
11.83131
 50
0
  1
3000
 72
1
 11
3000.000
 21
22292.901
 31
0
 73
3
  0
LINE
  8
0
 62
7
 10
3500.000
 20
22300.000
 30
0
 11
3500.000
 21
22295.267
 31
0
  0
Text
  8
0
 10
3500.000
 20
22292.901
 30
0
 40
11.83131
 50
0
  1
3500
 72
1
 11
3500.000
 21
22292.901
 31
0
 73
3
  0
LINE
  8
0
 62
7
 10
100.000
 20
22300.000
 30
0
 11
100.000
 21
22297.042
 31
0
  0
LINE
  8
0
 62
7
 10
200.000
 20
22300.000
 30
0
 11
200.000
 21
22297.042
 31
0
  0
LINE
  8
0
 62
7
 10
300.000
 20
22300.000
 30
0
 11
300.000
 21
22297.042
 31
0
  0
LINE
  8
0
 62
7
 10
400.000
 20
22300.000
 30
0
 11
400.000
 21
22297.042
 31
0
  0
LINE
  8
0
 62
7
 10
600.000
 20
22300.000
 30
0
 11
600.000
 21
22297.042
 31
0
  0
LINE
  8
0
 62
7
 10
700.000
 20
22300.000
 30
0
 11
700.000
 21
22297.042
 31
0
  0
LINE
  8
0
 62
7
 10
800.000
 20
22300.000
 30
0
 11
800.000
 21
22297.042
 31
0
  0
LINE
  8
0
 62
7
 10
900.000
 20
22300.000
 30
0
 11
900.000
 21
22297.042
 31
0
  0
LINE
  8
0
 62
7
 10
1100.000
 20
22300.000
 30
0
 11
1100.000
 21
22297.042
 31
0
  0
LINE
  8
0
 62
7
 10
1200.000
 20
22300.000
 30
0
 11
1200.000
 21
22297.042
 31
0
  0
LINE
  8
0
 62
7
 10
1300.000
 20
22300.000
 30
0
 11
1300.000
 21
22297.042
 31
0
  0
LINE
  8
0
 62
7
 10
1400.000
 20
22300.000
 30
0
 11
1400.000
 21
22297.042
 31
0
  0
LINE
  8
0
 62
7
 10
1600.000
 20
22300.000
 30
0
 11
1600.000
 21
22297.042
 31
0
  0
LINE
  8
0
 62
7
 10
1700.000
 20
22300.000
 30
0
 11
1700.000
 21
22297.042
 31
0
  0
LINE
  8
0
 62
7
 10
1800.000
 20
22300.000
 30
0
 11
1800.000
 21
22297.042
 31
0
  0
LINE
  8
0
 62
7
 10
1900.000
 20
22300.000
 30
0
 11
1900.000
 21
22297.042
 31
0
  0
LINE
  8
0
 62
7
 10
2100.000
 20
22300.000
 30
0
 11
2100.000
 21
22297.042
 31
0
  0
LINE
  8
0
 62
7
 10
2200.000
 20
22300.000
 30
0
 11
2200.000
 21
22297.042
 31
0
  0
LINE
  8
0
 62
7
 10
2300.000
 20
22300.000
 30
0
 11
2300.000
 21
22297.042
 31
0
  0
LINE
  8
0
 62
7
 10
2400.000
 20
22300.000
 30
0
 11
2400.000
 21
22297.042
 31
0
  0
LINE
  8
0
 62
7
 10
2600.000
 20
22300.000
 30
0
 11
2600.000
 21
22297.042
 31
0
  0
LINE
  8
0
 62
7
 10
2700.000
 20
22300.000
 30
0
 11
2700.000
 21
22297.042
 31
0
  0
LINE
  8
0
 62
7
 10
2800.000
 20
22300.000
 30
0
 11
2800.000
 21
22297.042
 31
0
  0
LINE
  8
0
 62
7
 10
2899.999
 20
22300.000
 30
0
 11
2899.999
 21
22297.042
 31
0
  0
LINE
  8
0
 62
7
 10
3100.000
 20
22300.000
 30
0
 11
3100.000
 21
22297.042
 31
0
  0
LINE
  8
0
 62
7
 10
3200.000
 20
22300.000
 30
0
 11
3200.000
 21
22297.042
 31
0
  0
LINE
  8
0
 62
7
 10
3300.000
 20
22300.000
 30
0
 11
3300.000
 21
22297.042
 31
0
  0
LINE
  8
0
 62
7
 10
3400.000
 20
22300.000
 30
0
 11
3400.000
 21
22297.042
 31
0
  0
LINE
  8
0
 62
7
 10
0.000
 20
22300.000
 30
0
 11
-4.733
 21
22300.000
 31
0
  0
Text
  8
0
 10
-9.465
 20
22300.000
 30
0
 40
11.83131
 50
0
  1
2230
 72
2
 11
-9.465
 21
22300.000
 31
0
 73
2
  0
LINE
  8
0
 62
7
 10
0.000
 20
22400.000
 30
0
 11
-4.733
 21
22400.000
 31
0
  0
Text
  8
0
 10
-9.465
 20
22400.000
 30
0
 40
11.83131
 50
0
  1
2240
 72
2
 11
-9.465
 21
22400.000
 31
0
 73
2
  0
LINE
  8
0
 62
7
 10
0.000
 20
22500.000
 30
0
 11
-4.733
 21
22500.000
 31
0
  0
Text
  8
0
 10
-9.465
 20
22500.000
 30
0
 40
11.83131
 50
0
  1
2250
 72
2
 11
-9.465
 21
22500.000
 31
0
 73
2
  0
LINE
  8
0
 62
7
 10
0.000
 20
22600.000
 30
0
 11
-4.733
 21
22600.000
 31
0
  0
Text
  8
0
 10
-9.465
 20
22600.000
 30
0
 40
11.83131
 50
0
  1
2260
 72
2
 11
-9.465
 21
22600.000
 31
0
 73
2
  0
LINE
  8
0
 62
7
 10
0.000
 20
22700.000
 30
0
 11
-4.733
 21
22700.000
 31
0
  0
Text
  8
0
 10
-9.465
 20
22700.000
 30
0
 40
11.83131
 50
0
  1
2270
 72
2
 11
-9.465
 21
22700.000
 31
0
 73
2
  0
LINE
  8
0
 62
7
 10
0.000
 20
22800.000
 30
0
 11
-4.733
 21
22800.000
 31
0
  0
Text
  8
0
 10
-9.465
 20
22800.000
 30
0
 40
11.83131
 50
0
  1
2280
 72
2
 11
-9.465
 21
22800.000
 31
0
 73
2
  0
LINE
  8
0
 62
7
 10
0.000
 20
22900.000
 30
0
 11
-4.733
 21
22900.000
 31
0
  0
Text
  8
0
 10
-9.465
 20
22900.000
 30
0
 40
11.83131
 50
0
  1
2290
 72
2
 11
-9.465
 21
22900.000
 31
0
 73
2
  0
LINE
  8
0
 62
7
 10
0.000
 20
23000.000
 30
0
 11
-4.733
 21
23000.000
 31
0
  0
Text
  8
0
 10
-9.465
 20
23000.000
 30
0
 40
11.83131
 50
0
  1
2300
 72
2
 11
-9.465
 21
23000.000
 31
0
 73
2
  0
LINE
  8
0
 62
7
 10
0.000
 20
23100.000
 30
0
 11
-4.733
 21
23100.000
 31
0
  0
Text
  8
0
 10
-9.465
 20
23100.000
 30
0
 40
11.83131
 50
0
  1
2310
 72
2
 11
-9.465
 21
23100.000
 31
0
 73
2
  0
LINE
  8
0
 62
7
 10
0.000
 20
22350.000
 30
0
 11
-2.958
 21
22350.000
 31
0
  0
LINE
  8
0
 62
7
 10
0.000
 20
22450.000
 30
0
 11
-2.958
 21
22450.000
 31
0
  0
LINE
  8
0
 62
7
 10
0.000
 20
22550.000
 30
0
 11
-2.958
 21
22550.000
 31
0
  0
LINE
  8
0
 62
7
 10
0.000
 20
22650.000
 30
0
 11
-2.958
 21
22650.000
 31
0
  0
LINE
  8
0
 62
7
 10
0.000
 20
22750.000
 30
0
 11
-2.958
 21
22750.000
 31
0
  0
LINE
  8
0
 62
7
 10
0.000
 20
22850.000
 30
0
 11
-2.958
 21
22850.000
 31
0
  0
LINE
  8
0
 62
7
 10
0.000
 20
22950.000
 30
0
 11
-2.958
 21
22950.000
 31
0
  0
LINE
  8
0
 62
7
 10
0.000
 20
23050.000
 30
0
 11
-2.958
 21
23050.000
 31
0
  0
Text
  8
0
 10
1750.000
 20
23122.184
 30
0
 40
14.78914
 50
0
  1
W331-332 - Butcher Hook Wash       Plan: Butcher Hook - Refined    5/8/2004 
 72
1
 11
1750.000
 21
23122.184
 31
0
 73
3
  0
Text
  8
0
 10
1750.000
 20
22250.410
 30
0
 40
11.83131
 50
0
  1
Main Channel Distance (ft)
 72
1
 11
1750.000
 21
22250.410
 31
0
 73
3
  0
Text
  8
0
 10
-70.988
 20
22700.000
 30
0
 40
11.83131
 50
90
  1
Elevation (ft)
 72
1
 11
-70.988
 21
22700.000
 31
0
 73
3
999
- - - Legend - - -
  0
Text
  8
0
 10
3553.241
 20
23094.084
 30
0
 40
11.83131
 50
0
  1
Legend
 72
1
 11
3553.241
 21
23094.084
 31
0
 73
3
  0
LINE
  8
0
 62
7
 10
3523.663
 20
23076.337
 30
0
 11
3582.819
 21
23076.337
 31
0
  0
LINE
  8
0
 62
4
 10
3523.663
 20
23058.590
 30
0
 11
3582.819
 21
23058.590
 31
0
  0
LINE
  8
0
 62
4
 10
3551.577
 20
23056.927
 30
0
 11
3554.905
 21
23060.254
 31
0
  0
LINE
  8
0
 62
4
 10
3551.577
 20
23060.254
 30
0
 11
3554.905
 21
23056.927
 31
0
  0
Text
  8
0
 10
3553.241
 20
23046.759
 30
0
 40
11.83131
 50
0
  1
WS  Q500
 72
1
 11
3553.241
 21
23046.759
 31
0
 73
3
  0
LINE
  8
0
 62
4
 10
3523.663
 20
23029.012
 30
0
 11
3582.819
 21
23029.012
 31
0
  0
LINE
  8
0
 62
4
 10
3551.577
 20
23030.121
 30
0
 11
3554.905
 21
23030.121
 31
0
  0
LINE
  8
0
 62
4
 10
3553.241
 20
23026.794
 30
0
 11
3554.905
 21
23030.121
 31
0
  0
LINE
  8
0
 62
4
 10
3553.241
 20
23026.794
 30
0
 11
3551.577
 21
23030.121
 31
0
  0
Text
  8
0
 10
3553.241
 20
23017.181
 30
0
 40
11.83131
 50
0
  1
WS  Q100
 72
1
 11
3553.241
 21
23017.181
 31
0
 73
3
  0
LINE
  8
0
 62
4
 10
3523.663
 20
22999.434
 30
0
 11
3582.819
 21
22999.434
 31
0
  0
LINE
  8
0
 62
4
 10
3551.577
 20
22998.325
 30
0
 11
3554.905
 21
22998.325
 31
0
  0
LINE
  8
0
 62
4
 10
3553.241
 20
23001.652
 30
0
 11
3554.905
 21
22998.325
 31
0
  0
LINE
  8
0
 62
4
 10
3553.241
 20
23001.652
 30
0
 11
3551.577
 21
22998.325
 31
0
  0
Text
  8
0
 10
3553.241
 20
22987.603
 30
0
 40
11.83131
 50
0
  1
WS  Q50
 72
1
 11
3553.241
 21
22987.603
 31
0
 73
3
  0
LINE
  8
0
 62
4
 10
3523.663
 20
22969.856
 30
0
 11
3582.819
 21
22969.856
 31
0
  0
Text
  8
0
 10
3553.241
 20
22958.024
 30
0
 40
11.83131
 50
0
  1
WS  Q10
 72
1
 11
3553.241
 21
22958.024
 31
0
 73
3
  0
LINE
  8
0
 62
7
 10
3523.663
 20
22940.277
 30
0
 11
3582.819
 21
22940.277
 31
0
  0
LINE
  8
0
 62
7
 10
3551.577
 20
22938.614
 30
0
 11
3551.577
 21
22941.941
 31
0
  0
LINE
  8
0
 62
7
 10
3551.577
 20
22941.941
 30
0
 11
3554.905
 21
22941.941
 31
0
  0
LINE
  8
0
 62
7
 10
3554.905
 20
22941.941
 30
0
 11
3554.905
 21
22938.614
 31
0
  0
LINE
  8
0
 62
7
 10
3554.905
 20
22938.614
 30
0
 11
3551.577
 21
22938.614
 31
0
  0
Text
  8
0
 10
3553.241
 20
22928.446
 30
0
 40
11.83131
 50
0
  1
Ground
 72
1
 11
3553.241
 21
22928.446
 31
0
 73
3
  0
LINE
  8
0
 62
7
 10
3511.831
 20
23100.000
 30
0
 11
3594.650
 21
23100.000
 31
0
  0
LINE
  8
0
 62
7
 10
3594.650
 20
23100.000
 30
0
 11
3594.650
 21
22910.699
 31
0
  0
LINE
  8
0
 62
7
 10
3511.831
 20
23100.000
 30
0
 11
3511.831
 21
22910.699
 31
0
  0
LINE
  8
0
 62
7
 10
3594.650
 20
22910.699
 30
0
 11
3511.831
 21
22910.699
 31
0
999
- - - Line Data - - -
999
- - - Line Data - - -
  0
LINE
  8
0
 62
7
 10
792.620
 20
22350.400
 30
0
 11
792.620
 21
22387.800
 31
0
  0
LINE
  8
0
 62
7
 10
792.620
 20
22387.800
 30
0
 11
829.620
 21
22402.900
 31
0
  0
LINE
  8
0
 62
7
 10
829.620
 20
22402.900
 30
0
 11
829.620
 21
22374.600
 31
0
  0
LINE
  8
0
 62
7
 10
829.620
 20
22374.600
 30
0
 11
792.620
 21
22350.400
 31
0
999
- - - Line Data - - -
  0
LINE
  8
0
 62
7
 10
2543.340
 20
22727.700
 30
0
 11
2543.340
 21
22822.451
 31
0
  0
LINE
  8
0
 62
7
 10
2543.340
 20
22822.451
 30
0
 11
2591.340
 21
22825.564
 31
0
  0
LINE
  8
0
 62
7
 10
2591.340
 20
22825.564
 30
0
 11
2591.340
 21
22755.400
 31
0
  0
LINE
  8
0
 62
7
 10
2591.340
 20
22755.400
 30
0
 11
2543.340
 21
22727.700
 31
0
999
- - - Line Data - - -
  0
LINE
  8
0
 62
7
 10
795.620
 20
22360.601
 30
0
 11
795.620
 21
22400.601
 31
0
  0
LINE
  8
0
 62
7
 10
795.620
 20
22400.601
 30
0
 11
835.620
 21
22404.700
 31
0
  0
LINE
  8
0
 62
7
 10
835.620
 20
22404.700
 30
0
 11
835.620
 21
22364.700
 31
0
  0
LINE
  8
0
 62
7
 10
835.620
 20
22364.700
 30
0
 11
795.620
 21
22360.601
 31
0
999
- - - Line Data - - -
  0
LINE
  8
0
 62
7
 10
795.620
 20
22355.300
 30
0
 11
795.620
 21
22395.300
 31
0
  0
LINE
  8
0
 62
7
 10
795.620
 20
22395.300
 30
0
 11
835.620
 21
22410.601
 31
0
  0
LINE
  8
0
 62
7
 10
835.620
 20
22410.601
 30
0
 11
835.620
 21
22370.601
 31
0
  0
LINE
  8
0
 62
7
 10
835.620
 20
22370.601
 30
0
 11
795.620
 21
22355.300
 31
0
999
- - - Line Data - - -
  0
LINE
  8
0
 62
7
 10
2494.340
 20
22725.300
 30
0
 11
2494.340
 21
22765.300
 31
0
  0
LINE
  8
0
 62
7
 10
2494.340
 20
22765.300
 30
0
 11
2638.340
 21
22786.599
 31
0
  0
LINE
  8
0
 62
7
 10
2638.340
 20
22786.599
 30
0
 11
2638.340
 21
22746.599
 31
0
  0
LINE
  8
0
 62
7
 10
2638.340
 20
22746.599
 30
0
 11
2494.340
 21
22725.300
 31
0
999
- - - Line Data - - -
  0
LINE
  8
0
 62
7
 10
0.000
 20
22301.599
 30
0
 11
542.910
 21
22325.000
 31
0
  0
LINE
  8
0
 62
7
 10
542.910
 20
22325.000
 30
0
 11
748.290
 21
22350.400
 31
0
  0
LINE
  8
0
 62
7
 10
748.290
 20
22350.400
 30
0
 11
792.620
 21
22350.400
 31
0
  0
LINE
  8
0
 62
7
 10
792.620
 20
22350.400
 30
0
 11
829.620
 21
22374.600
 31
0
  0
LINE
  8
0
 62
7
 10
829.620
 20
22374.600
 30
0
 11
863.620
 21
22374.600
 31
0
  0
LINE
  8
0
 62
7
 10
863.620
 20
22374.600
 30
0
 11
999.840
 21
22391.201
 31
0
  0
LINE
  8
0
 62
7
 10
999.840
 20
22391.201
 30
0
 11
1246.580
 21
22453.501
 31
0
  0
LINE
  8
0
 62
7
 10
1246.580
 20
22453.501
 30
0
 11
1262.630
 21
22437.300
 31
0
  0
LINE
  8
0
 62
7
 10
1262.630
 20
22437.300
 30
0
 11
1438.670
 21
22467.000
 31
0
  0
LINE
  8
0
 62
7
 10
1438.670
 20
22467.000
 30
0
 11
1576.360
 21
22488.301
 31
0
  0
LINE
  8
0
 62
7
 10
1576.360
 20
22488.301
 30
0
 11
1653.170
 21
22492.200
 31
0
  0
LINE
  8
0
 62
7
 10
1653.170
 20
22492.200
 30
0
 11
1771.840
 21
22517.100
 31
0
  0
LINE
  8
0
 62
7
 10
1771.840
 20
22517.100
 30
0
 11
2065.180
 21
22632.800
 31
0
  0
LINE
  8
0
 62
7
 10
2065.180
 20
22632.800
 30
0
 11
2118.050
 21
22640.901
 31
0
  0
LINE
  8
0
 62
7
 10
2118.050
 20
22640.901
 30
0
 11
2221.020
 21
22656.001
 31
0
  0
LINE
  8
0
 62
7
 10
2221.020
 20
22656.001
 30
0
 11
2400.710
 21
22691.499
 31
0
  0
LINE
  8
0
 62
7
 10
2400.710
 20
22691.499
 30
0
 11
2478.740
 21
22727.700
 31
0
  0
LINE
  8
0
 62
7
 10
2478.740
 20
22727.700
 30
0
 11
2543.340
 21
22727.700
 31
0
  0
LINE
  8
0
 62
7
 10
2543.340
 20
22727.700
 30
0
 11
2591.340
 21
22755.400
 31
0
  0
LINE
  8
0
 62
7
 10
2591.340
 20
22755.400
 30
0
 11
2641.340
 21
22755.400
 31
0
  0
LINE
  8
0
 62
7
 10
2641.340
 20
22755.400
 30
0
 11
2731.380
 21
22771.499
 31
0
  0
LINE
  8
0
 62
7
 10
2731.380
 20
22771.499
 30
0
 11
2820.500
 21
22812.100
 31
0
  0
LINE
  8
0
 62
7
 10
2820.500
 20
22812.100
 30
0
 11
3016.310
 21
22901.201
 31
0
  0
LINE
  8
0
 62
7
 10
3016.310
 20
22901.201
 30
0
 11
3299.260
 21
22980.601
 31
0
999
- - - Symbol Data - - -
  0
LINE
  8
0
 62
7
 10
-1.664
 20
22299.935
 30
0
 11
-1.664
 21
22303.263
 31
0
  0
LINE
  8
0
 62
7
 10
-1.664
 20
22303.263
 30
0
 11
1.664
 21
22303.263
 31
0
  0
LINE
  8
0
 62
7
 10
1.664
 20
22303.263
 30
0
 11
1.664
 21
22299.935
 31
0
  0
LINE
  8
0
 62
7
 10
1.664
 20
22299.935
 30
0
 11
-1.664
 21
22299.935
 31
0
  0
LINE
  8
0
 62
7
 10
541.246
 20
22323.336
 30
0
 11
541.246
 21
22326.664
 31
0
  0
LINE
  8
0
 62
7
 10
541.246
 20
22326.664
 30
0
 11
544.574
 21
22326.664
 31
0
  0
LINE
  8
0
 62
7
 10
544.574
 20
22326.664
 30
0
 11
544.574
 21
22323.336
 31
0
  0
LINE
  8
0
 62
7
 10
544.574
 20
22323.336
 30
0
 11
541.246
 21
22323.336
 31
0
  0
LINE
  8
0
 62
7
 10
746.626
 20
22348.737
 30
0
 11
746.626
 21
22352.064
 31
0
  0
LINE
  8
0
 62
7
 10
746.626
 20
22352.064
 30
0
 11
749.954
 21
22352.064
 31
0
  0
LINE
  8
0
 62
7
 10
749.954
 20
22352.064
 30
0
 11
749.954
 21
22348.737
 31
0
  0
LINE
  8
0
 62
7
 10
749.954
 20
22348.737
 30
0
 11
746.626
 21
22348.737
 31
0
  0
LINE
  8
0
 62
7
 10
790.956
 20
22348.737
 30
0
 11
790.956
 21
22352.064
 31
0
  0
LINE
  8
0
 62
7
 10
790.956
 20
22352.064
 30
0
 11
794.284
 21
22352.064
 31
0
  0
LINE
  8
0
 62
7
 10
794.284
 20
22352.064
 30
0
 11
794.284
 21
22348.737
 31
0
  0
LINE
  8
0
 62
7
 10
794.284
 20
22348.737
 30
0
 11
790.956
 21
22348.737
 31
0
  0
LINE
  8
0
 62
7
 10
827.956
 20
22372.936
 30
0
 11
827.956
 21
22376.263
 31
0
  0
LINE
  8
0
 62
7
 10
827.956
 20
22376.263
 30
0
 11
831.284
 21
22376.263
 31
0
  0
LINE
  8
0
 62
7
 10
831.284
 20
22376.263
 30
0
 11
831.284
 21
22372.936
 31
0
  0
LINE
  8
0
 62
7
 10
831.284
 20
22372.936
 30
0
 11
827.956
 21
22372.936
 31
0
  0
LINE
  8
0
 62
7
 10
861.956
 20
22372.936
 30
0
 11
861.956
 21
22376.263
 31
0
  0
LINE
  8
0
 62
7
 10
861.956
 20
22376.263
 30
0
 11
865.284
 21
22376.263
 31
0
  0
LINE
  8
0
 62
7
 10
865.284
 20
22376.263
 30
0
 11
865.284
 21
22372.936
 31
0
  0
LINE
  8
0
 62
7
 10
865.284
 20
22372.936
 30
0
 11
861.956
 21
22372.936
 31
0
  0
LINE
  8
0
 62
7
 10
998.176
 20
22389.537
 30
0
 11
998.176
 21
22392.865
 31
0
  0
LINE
  8
0
 62
7
 10
998.176
 20
22392.865
 30
0
 11
1001.504
 21
22392.865
 31
0
  0
LINE
  8
0
 62
7
 10
1001.504
 20
22392.865
 30
0
 11
1001.504
 21
22389.537
 31
0
  0
LINE
  8
0
 62
7
 10
1001.504
 20
22389.537
 30
0
 11
998.176
 21
22389.537
 31
0
  0
LINE
  8
0
 62
7
 10
1244.916
 20
22451.837
 30
0
 11
1244.916
 21
22455.165
 31
0
  0
LINE
  8
0
 62
7
 10
1244.916
 20
22455.165
 30
0
 11
1248.244
 21
22455.165
 31
0
  0
LINE
  8
0
 62
7
 10
1248.244
 20
22455.165
 30
0
 11
1248.244
 21
22451.837
 31
0
  0
LINE
  8
0
 62
7
 10
1248.244
 20
22451.837
 30
0
 11
1244.916
 21
22451.837
 31
0
  0
LINE
  8
0
 62
7
 10
1260.966
 20
22435.636
 30
0
 11
1260.966
 21
22438.964
 31
0
  0
LINE
  8
0
 62
7
 10
1260.966
 20
22438.964
 30
0
 11
1264.294
 21
22438.964
 31
0
  0
LINE
  8
0
 62
7
 10
1264.294
 20
22438.964
 30
0
 11
1264.294
 21
22435.636
 31
0
  0
LINE
  8
0
 62
7
 10
1264.294
 20
22435.636
 30
0
 11
1260.966
 21
22435.636
 31
0
  0
LINE
  8
0
 62
7
 10
1437.006
 20
22465.336
 30
0
 11
1437.006
 21
22468.663
 31
0
  0
LINE
  8
0
 62
7
 10
1437.006
 20
22468.663
 30
0
 11
1440.334
 21
22468.663
 31
0
  0
LINE
  8
0
 62
7
 10
1440.334
 20
22468.663
 30
0
 11
1440.334
 21
22465.336
 31
0
  0
LINE
  8
0
 62
7
 10
1440.334
 20
22465.336
 30
0
 11
1437.006
 21
22465.336
 31
0
  0
LINE
  8
0
 62
7
 10
1574.696
 20
22486.637
 30
0
 11
1574.696
 21
22489.965
 31
0
  0
LINE
  8
0
 62
7
 10
1574.696
 20
22489.965
 30
0
 11
1578.024
 21
22489.965
 31
0
  0
LINE
  8
0
 62
7
 10
1578.024
 20
22489.965
 30
0
 11
1578.024
 21
22486.637
 31
0
  0
LINE
  8
0
 62
7
 10
1578.024
 20
22486.637
 30
0
 11
1574.696
 21
22486.637
 31
0
  0
LINE
  8
0
 62
7
 10
1651.506
 20
22490.536
 30
0
 11
1651.506
 21
22493.863
 31
0
  0
LINE
  8
0
 62
7
 10
1651.506
 20
22493.863
 30
0
 11
1654.834
 21
22493.863
 31
0
  0
LINE
  8
0
 62
7
 10
1654.834
 20
22493.863
 30
0
 11
1654.834
 21
22490.536
 31
0
  0
LINE
  8
0
 62
7
 10
1654.834
 20
22490.536
 30
0
 11
1651.506
 21
22490.536
 31
0
  0
LINE
  8
0
 62
7
 10
1770.176
 20
22515.436
 30
0
 11
1770.176
 21
22518.763
 31
0
  0
LINE
  8
0
 62
7
 10
1770.176
 20
22518.763
 30
0
 11
1773.504
 21
22518.763
 31
0
  0
LINE
  8
0
 62
7
 10
1773.504
 20
22518.763
 30
0
 11
1773.504
 21
22515.436
 31
0
  0
LINE
  8
0
 62
7
 10
1773.504
 20
22515.436
 30
0
 11
1770.176
 21
22515.436
 31
0
  0
LINE
  8
0
 62
7
 10
2063.516
 20
22631.137
 30
0
 11
2063.516
 21
22634.464
 31
0
  0
LINE
  8
0
 62
7
 10
2063.516
 20
22634.464
 30
0
 11
2066.844
 21
22634.464
 31
0
  0
LINE
  8
0
 62
7
 10
2066.844
 20
22634.464
 30
0
 11
2066.844
 21
22631.137
 31
0
  0
LINE
  8
0
 62
7
 10
2066.844
 20
22631.137
 30
0
 11
2063.516
 21
22631.137
 31
0
  0
LINE
  8
0
 62
7
 10
2116.386
 20
22639.237
 30
0
 11
2116.386
 21
22642.565
 31
0
  0
LINE
  8
0
 62
7
 10
2116.386
 20
22642.565
 30
0
 11
2119.714
 21
22642.565
 31
0
  0
LINE
  8
0
 62
7
 10
2119.714
 20
22642.565
 30
0
 11
2119.714
 21
22639.237
 31
0
  0
LINE
  8
0
 62
7
 10
2119.714
 20
22639.237
 30
0
 11
2116.386
 21
22639.237
 31
0
  0
LINE
  8
0
 62
7
 10
2219.356
 20
22654.337
 30
0
 11
2219.356
 21
22657.665
 31
0
  0
LINE
  8
0
 62
7
 10
2219.356
 20
22657.665
 30
0
 11
2222.684
 21
22657.665
 31
0
  0
LINE
  8
0
 62
7
 10
2222.684
 20
22657.665
 30
0
 11
2222.684
 21
22654.337
 31
0
  0
LINE
  8
0
 62
7
 10
2222.684
 20
22654.337
 30
0
 11
2219.356
 21
22654.337
 31
0
  0
LINE
  8
0
 62
7
 10
2399.046
 20
22689.835
 30
0
 11
2399.046
 21
22693.163
 31
0
  0
LINE
  8
0
 62
7
 10
2399.046
 20
22693.163
 30
0
 11
2402.374
 21
22693.163
 31
0
  0
LINE
  8
0
 62
7
 10
2402.374
 20
22693.163
 30
0
 11
2402.374
 21
22689.835
 31
0
  0
LINE
  8
0
 62
7
 10
2402.374
 20
22689.835
 30
0
 11
2399.046
 21
22689.835
 31
0
  0
LINE
  8
0
 62
7
 10
2477.076
 20
22726.036
 30
0
 11
2477.076
 21
22729.364
 31
0
  0
LINE
  8
0
 62
7
 10
2477.076
 20
22729.364
 30
0
 11
2480.404
 21
22729.364
 31
0
  0
LINE
  8
0
 62
7
 10
2480.404
 20
22729.364
 30
0
 11
2480.404
 21
22726.036
 31
0
  0
LINE
  8
0
 62
7
 10
2480.404
 20
22726.036
 30
0
 11
2477.076
 21
22726.036
 31
0
  0
LINE
  8
0
 62
7
 10
2541.676
 20
22726.036
 30
0
 11
2541.676
 21
22729.364
 31
0
  0
LINE
  8
0
 62
7
 10
2541.676
 20
22729.364
 30
0
 11
2545.004
 21
22729.364
 31
0
  0
LINE
  8
0
 62
7
 10
2545.004
 20
22729.364
 30
0
 11
2545.004
 21
22726.036
 31
0
  0
LINE
  8
0
 62
7
 10
2545.004
 20
22726.036
 30
0
 11
2541.676
 21
22726.036
 31
0
  0
LINE
  8
0
 62
7
 10
2589.676
 20
22753.737
 30
0
 11
2589.676
 21
22757.064
 31
0
  0
LINE
  8
0
 62
7
 10
2589.676
 20
22757.064
 30
0
 11
2593.004
 21
22757.064
 31
0
  0
LINE
  8
0
 62
7
 10
2593.004
 20
22757.064
 30
0
 11
2593.004
 21
22753.737
 31
0
  0
LINE
  8
0
 62
7
 10
2593.004
 20
22753.737
 30
0
 11
2589.676
 21
22753.737
 31
0
  0
LINE
  8
0
 62
7
 10
2639.676
 20
22753.737
 30
0
 11
2639.676
 21
22757.064
 31
0
  0
LINE
  8
0
 62
7
 10
2639.676
 20
22757.064
 30
0
 11
2643.004
 21
22757.064
 31
0
  0
LINE
  8
0
 62
7
 10
2643.004
 20
22757.064
 30
0
 11
2643.004
 21
22753.737
 31
0
  0
LINE
  8
0
 62
7
 10
2643.004
 20
22753.737
 30
0
 11
2639.676
 21
22753.737
 31
0
  0
LINE
  8
0
 62
7
 10
2729.716
 20
22769.835
 30
0
 11
2729.716
 21
22773.163
 31
0
  0
LINE
  8
0
 62
7
 10
2729.716
 20
22773.163
 30
0
 11
2733.044
 21
22773.163
 31
0
  0
LINE
  8
0
 62
7
 10
2733.044
 20
22773.163
 30
0
 11
2733.044
 21
22769.835
 31
0
  0
LINE
  8
0
 62
7
 10
2733.044
 20
22769.835
 30
0
 11
2729.716
 21
22769.835
 31
0
  0
LINE
  8
0
 62
7
 10
2818.836
 20
22810.436
 30
0
 11
2818.836
 21
22813.763
 31
0
  0
LINE
  8
0
 62
7
 10
2818.836
 20
22813.763
 30
0
 11
2822.164
 21
22813.763
 31
0
  0
LINE
  8
0
 62
7
 10
2822.164
 20
22813.763
 30
0
 11
2822.164
 21
22810.436
 31
0
  0
LINE
  8
0
 62
7
 10
2822.164
 20
22810.436
 30
0
 11
2818.836
 21
22810.436
 31
0
  0
LINE
  8
0
 62
7
 10
3014.646
 20
22899.537
 30
0
 11
3014.646
 21
22902.865
 31
0
  0
LINE
  8
0
 62
7
 10
3014.646
 20
22902.865
 30
0
 11
3017.974
 21
22902.865
 31
0
  0
LINE
  8
0
 62
7
 10
3017.974
 20
22902.865
 30
0
 11
3017.974
 21
22899.537
 31
0
  0
LINE
  8
0
 62
7
 10
3017.974
 20
22899.537
 30
0
 11
3014.646
 21
22899.537
 31
0
  0
LINE
  8
0
 62
7
 10
3297.596
 20
22978.937
 30
0
 11
3297.596
 21
22982.264
 31
0
  0
LINE
  8
0
 62
7
 10
3297.596
 20
22982.264
 30
0
 11
3300.924
 21
22982.264
 31
0
  0
LINE
  8
0
 62
7
 10
3300.924
 20
22982.264
 30
0
 11
3300.924
 21
22978.937
 31
0
  0
LINE
  8
0
 62
7
 10
3300.924
 20
22978.937
 30
0
 11
3297.596
 21
22978.937
 31
0
999
- - - Line Data - - -
  0
LINE
  8
0
 62
4
 10
0.000
 20
22328.555
 30
0
 11
542.910
 21
22362.605
 31
0
  0
LINE
  8
0
 62
4
 10
542.910
 20
22362.605
 30
0
 11
748.290
 21
22370.159
 31
0
  0
LINE
  8
0
 62
4
 10
748.290
 20
22370.159
 30
0
 11
795.620
 21
22392.134
 31
0
  0
LINE
  8
0
 62
4
 10
795.620
 20
22392.134
 30
0
 11
835.620
 21
22405.464
 31
0
  0
LINE
  8
0
 62
4
 10
835.620
 20
22405.464
 30
0
 11
863.620
 21
22405.464
 31
0
  0
LINE
  8
0
 62
4
 10
863.620
 20
22405.464
 30
0
 11
999.840
 21
22432.019
 31
0
  0
LINE
  8
0
 62
4
 10
999.840
 20
22432.019
 30
0
 11
1246.580
 21
22466.067
 31
0
  0
LINE
  8
0
 62
4
 10
1246.580
 20
22466.067
 30
0
 11
1262.630
 21
22469.446
 31
0
  0
LINE
  8
0
 62
4
 10
1262.630
 20
22469.446
 30
0
 11
1438.670
 21
22498.696
 31
0
  0
LINE
  8
0
 62
4
 10
1438.670
 20
22498.696
 30
0
 11
1576.360
 21
22527.544
 31
0
  0
LINE
  8
0
 62
4
 10
1576.360
 20
22527.544
 30
0
 11
1653.170
 21
22535.847
 31
0
  0
LINE
  8
0
 62
4
 10
1653.170
 20
22535.847
 30
0
 11
1771.840
 21
22549.419
 31
0
  0
LINE
  8
0
 62
4
 10
1771.840
 20
22549.419
 30
0
 11
2065.180
 21
22661.548
 31
0
  0
LINE
  8
0
 62
4
 10
2065.180
 20
22661.548
 30
0
 11
2118.050
 21
22671.252
 31
0
  0
LINE
  8
0
 62
4
 10
2118.050
 20
22671.252
 30
0
 11
2221.020
 21
22683.779
 31
0
  0
LINE
  8
0
 62
4
 10
2221.020
 20
22683.779
 30
0
 11
2400.710
 21
22718.440
 31
0
  0
LINE
  8
0
 62
4
 10
2400.710
 20
22718.440
 30
0
 11
2478.740
 21
22755.000
 31
0
  0
LINE
  8
0
 62
4
 10
2478.740
 20
22755.000
 30
0
 11
2494.340
 21
22759.272
 31
0
  0
LINE
  8
0
 62
4
 10
2494.340
 20
22759.272
 30
0
 11
2503.940
 21
22758.950
 31
0
  0
LINE
  8
0
 62
4
 10
2503.940
 20
22758.950
 30
0
 11
2513.540
 21
22739.917
 31
0
  0
LINE
  8
0
 62
4
 10
2513.540
 20
22739.917
 30
0
 11
2523.140
 21
22741.470
 31
0
  0
LINE
  8
0
 62
4
 10
2523.140
 20
22741.470
 30
0
 11
2532.740
 21
22743.035
 31
0
  0
LINE
  8
0
 62
4
 10
2532.740
 20
22743.035
 30
0
 11
2542.340
 21
22744.626
 31
0
  0
LINE
  8
0
 62
4
 10
2542.340
 20
22744.626
 30
0
 11
2551.940
 21
22746.238
 31
0
  0
LINE
  8
0
 62
4
 10
2551.940
 20
22746.238
 30
0
 11
2561.540
 21
22747.874
 31
0
  0
LINE
  8
0
 62
4
 10
2561.540
 20
22747.874
 30
0
 11
2571.140
 21
22749.546
 31
0
  0
LINE
  8
0
 62
4
 10
2571.140
 20
22749.546
 30
0
 11
2580.740
 21
22751.262
 31
0
  0
LINE
  8
0
 62
4
 10
2580.740
 20
22751.262
 30
0
 11
2590.340
 21
22753.032
 31
0
  0
LINE
  8
0
 62
4
 10
2590.340
 20
22753.032
 30
0
 11
2599.940
 21
22754.880
 31
0
  0
LINE
  8
0
 62
4
 10
2599.940
 20
22754.880
 30
0
 11
2609.540
 21
22756.836
 31
0
  0
LINE
  8
0
 62
4
 10
2609.540
 20
22756.836
 30
0
 11
2619.140
 21
22758.975
 31
0
  0
LINE
  8
0
 62
4
 10
2619.140
 20
22758.975
 30
0
 11
2628.740
 21
22761.470
 31
0
  0
LINE
  8
0
 62
4
 10
2628.740
 20
22761.470
 30
0
 11
2638.340
 21
22766.267
 31
0
  0
LINE
  8
0
 62
4
 10
2638.340
 20
22766.267
 30
0
 11
2641.340
 21
22776.689
 31
0
  0
LINE
  8
0
 62
4
 10
2641.340
 20
22776.689
 30
0
 11
2731.380
 21
22799.448
 31
0
  0
LINE
  8
0
 62
4
 10
2731.380
 20
22799.448
 30
0
 11
2820.500
 21
22840.535
 31
0
  0
LINE
  8
0
 62
4
 10
2820.500
 20
22840.535
 30
0
 11
3016.310
 21
22903.442
 31
0
  0
LINE
  8
0
 62
4
 10
3016.310
 20
22903.442
 30
0
 11
3299.260
 21
23009.846
 31
0
999
- - - Line Data - - -
  0
LINE
  8
0
 62
4
 10
0.000
 20
22333.015
 30
0
 11
542.910
 21
22368.650
 31
0
  0
LINE
  8
0
 62
4
 10
542.910
 20
22368.650
 30
0
 11
748.290
 21
22375.898
 31
0
  0
LINE
  8
0
 62
4
 10
748.290
 20
22375.898
 30
0
 11
795.620
 21
22395.203
 31
0
  0
LINE
  8
0
 62
4
 10
795.620
 20
22395.203
 30
0
 11
835.620
 21
22409.973
 31
0
  0
LINE
  8
0
 62
4
 10
835.620
 20
22409.973
 30
0
 11
863.620
 21
22409.973
 31
0
  0
LINE
  8
0
 62
4
 10
863.620
 20
22409.973
 30
0
 11
999.840
 21
22435.234
 31
0
  0
LINE
  8
0
 62
4
 10
999.840
 20
22435.234
 30
0
 11
1246.580
 21
22468.740
 31
0
  0
LINE
  8
0
 62
4
 10
1246.580
 20
22468.740
 30
0
 11
1262.630
 21
22471.611
 31
0
  0
LINE
  8
0
 62
4
 10
1262.630
 20
22471.611
 30
0
 11
1438.670
 21
22508.730
 31
0
  0
LINE
  8
0
 62
4
 10
1438.670
 20
22508.730
 30
0
 11
1576.360
 21
22540.442
 31
0
  0
LINE
  8
0
 62
4
 10
1576.360
 20
22540.442
 30
0
 11
1653.170
 21
22550.181
 31
0
  0
LINE
  8
0
 62
4
 10
1653.170
 20
22550.181
 30
0
 11
1771.840
 21
22569.448
 31
0
  0
LINE
  8
0
 62
4
 10
1771.840
 20
22569.448
 30
0
 11
2065.180
 21
22675.212
 31
0
  0
LINE
  8
0
 62
4
 10
2065.180
 20
22675.212
 30
0
 11
2118.050
 21
22685.632
 31
0
  0
LINE
  8
0
 62
4
 10
2118.050
 20
22685.632
 30
0
 11
2221.020
 21
22694.082
 31
0
  0
LINE
  8
0
 62
4
 10
2221.020
 20
22694.082
 30
0
 11
2400.710
 21
22731.152
 31
0
  0
LINE
  8
0
 62
4
 10
2400.710
 20
22731.152
 30
0
 11
2478.740
 21
22774.463
 31
0
  0
LINE
  8
0
 62
4
 10
2478.740
 20
22774.463
 30
0
 11
2494.340
 21
22765.300
 31
0
  0
LINE
  8
0
 62
4
 10
2494.340
 20
22765.300
 30
0
 11
2503.940
 21
22766.721
 31
0
  0
LINE
  8
0
 62
4
 10
2503.940
 20
22766.721
 30
0
 11
2513.540
 21
22768.140
 31
0
  0
LINE
  8
0
 62
4
 10
2513.540
 20
22768.140
 30
0
 11
2523.140
 21
22769.561
 31
0
  0
LINE
  8
0
 62
4
 10
2523.140
 20
22769.561
 30
0
 11
2532.740
 21
22770.979
 31
0
  0
LINE
  8
0
 62
4
 10
2532.740
 20
22770.979
 30
0
 11
2542.340
 21
22772.400
 31
0
  0
LINE
  8
0
 62
4
 10
2542.340
 20
22772.400
 30
0
 11
2551.940
 21
22773.821
 31
0
  0
LINE
  8
0
 62
4
 10
2551.940
 20
22773.821
 30
0
 11
2561.540
 21
22775.239
 31
0
  0
LINE
  8
0
 62
4
 10
2561.540
 20
22775.239
 30
0
 11
2571.140
 21
22776.660
 31
0
  0
LINE
  8
0
 62
4
 10
2571.140
 20
22776.660
 30
0
 11
2580.740
 21
22778.079
 31
0
  0
LINE
  8
0
 62
4
 10
2580.740
 20
22778.079
 30
0
 11
2590.340
 21
22779.500
 31
0
  0
LINE
  8
0
 62
4
 10
2590.340
 20
22779.500
 30
0
 11
2599.940
 21
22780.920
 31
0
  0
LINE
  8
0
 62
4
 10
2599.940
 20
22780.920
 30
0
 11
2609.540
 21
22782.339
 31
0
  0
LINE
  8
0
 62
4
 10
2609.540
 20
22782.339
 30
0
 11
2619.140
 21
22783.760
 31
0
  0
LINE
  8
0
 62
4
 10
2619.140
 20
22783.760
 30
0
 11
2628.740
 21
22785.178
 31
0
  0
LINE
  8
0
 62
4
 10
2628.740
 20
22785.178
 30
0
 11
2638.340
 21
22786.599
 31
0
  0
LINE
  8
0
 62
4
 10
2638.340
 20
22786.599
 30
0
 11
2641.340
 21
22812.161
 31
0
  0
LINE
  8
0
 62
4
 10
2641.340
 20
22812.161
 30
0
 11
2731.380
 21
22819.055
 31
0
  0
LINE
  8
0
 62
4
 10
2731.380
 20
22819.055
 30
0
 11
2820.500
 21
22857.173
 31
0
  0
LINE
  8
0
 62
4
 10
2820.500
 20
22857.173
 30
0
 11
3016.310
 21
22913.945
 31
0
  0
LINE
  8
0
 62
4
 10
3016.310
 20
22913.945
 30
0
 11
3299.260
 21
23023.708
 31
0
999
- - - Symbol Data - - -
  0
LINE
  8
0
 62
4
 10
-1.664
 20
22331.906
 30
0
 11
1.664
 21
22331.906
 31
0
  0
LINE
  8
0
 62
4
 10
0.000
 20
22335.234
 30
0
 11
1.664
 21
22331.906
 31
0
  0
LINE
  8
0
 62
4
 10
0.000
 20
22335.234
 30
0
 11
-1.664
 21
22331.906
 31
0
  0
LINE
  8
0
 62
4
 10
541.246
 20
22367.541
 30
0
 11
544.574
 21
22367.541
 31
0
  0
LINE
  8
0
 62
4
 10
542.910
 20
22370.868
 30
0
 11
544.574
 21
22367.541
 31
0
  0
LINE
  8
0
 62
4
 10
542.910
 20
22370.868
 30
0
 11
541.246
 21
22367.541
 31
0
  0
LINE
  8
0
 62
4
 10
746.626
 20
22374.789
 30
0
 11
749.954
 21
22374.789
 31
0
  0
LINE
  8
0
 62
4
 10
748.290
 20
22378.117
 30
0
 11
749.954
 21
22374.789
 31
0
  0
LINE
  8
0
 62
4
 10
748.290
 20
22378.117
 30
0
 11
746.626
 21
22374.789
 31
0
  0
LINE
  8
0
 62
4
 10
793.956
 20
22394.093
 30
0
 11
797.284
 21
22394.093
 31
0
  0
LINE
  8
0
 62
4
 10
795.620
 20
22397.421
 30
0
 11
797.284
 21
22394.093
 31
0
  0
LINE
  8
0
 62
4
 10
795.620
 20
22397.421
 30
0
 11
793.956
 21
22394.093
 31
0
  0
LINE
  8
0
 62
4
 10
833.956
 20
22408.864
 30
0
 11
837.284
 21
22408.864
 31
0
  0
LINE
  8
0
 62
4
 10
835.620
 20
22412.192
 30
0
 11
837.284
 21
22408.864
 31
0
  0
LINE
  8
0
 62
4
 10
835.620
 20
22412.192
 30
0
 11
833.956
 21
22408.864
 31
0
  0
LINE
  8
0
 62
4
 10
861.956
 20
22408.864
 30
0
 11
865.284
 21
22408.864
 31
0
  0
LINE
  8
0
 62
4
 10
863.620
 20
22412.192
 30
0
 11
865.284
 21
22408.864
 31
0
  0
LINE
  8
0
 62
4
 10
863.620
 20
22412.192
 30
0
 11
861.956
 21
22408.864
 31
0
  0
LINE
  8
0
 62
4
 10
998.176
 20
22434.125
 30
0
 11
1001.504
 21
22434.125
 31
0
  0
LINE
  8
0
 62
4
 10
999.840
 20
22437.453
 30
0
 11
1001.504
 21
22434.125
 31
0
  0
LINE
  8
0
 62
4
 10
999.840
 20
22437.453
 30
0
 11
998.176
 21
22434.125
 31
0
  0
LINE
  8
0
 62
4
 10
1244.916
 20
22467.631
 30
0
 11
1248.244
 21
22467.631
 31
0
  0
LINE
  8
0
 62
4
 10
1246.580
 20
22470.959
 30
0
 11
1248.244
 21
22467.631
 31
0
  0
LINE
  8
0
 62
4
 10
1246.580
 20
22470.959
 30
0
 11
1244.916
 21
22467.631
 31
0
  0
LINE
  8
0
 62
4
 10
1260.966
 20
22470.502
 30
0
 11
1264.294
 21
22470.502
 31
0
  0
LINE
  8
0
 62
4
 10
1262.630
 20
22473.830
 30
0
 11
1264.294
 21
22470.502
 31
0
  0
LINE
  8
0
 62
4
 10
1262.630
 20
22473.830
 30
0
 11
1260.966
 21
22470.502
 31
0
  0
LINE
  8
0
 62
4
 10
1437.006
 20
22507.621
 30
0
 11
1440.334
 21
22507.621
 31
0
  0
LINE
  8
0
 62
4
 10
1438.670
 20
22510.949
 30
0
 11
1440.334
 21
22507.621
 31
0
  0
LINE
  8
0
 62
4
 10
1438.670
 20
22510.949
 30
0
 11
1437.006
 21
22507.621
 31
0
  0
LINE
  8
0
 62
4
 10
1574.696
 20
22539.333
 30
0
 11
1578.024
 21
22539.333
 31
0
  0
LINE
  8
0
 62
4
 10
1576.360
 20
22542.660
 30
0
 11
1578.024
 21
22539.333
 31
0
  0
LINE
  8
0
 62
4
 10
1576.360
 20
22542.660
 30
0
 11
1574.696
 21
22539.333
 31
0
  0
LINE
  8
0
 62
4
 10
1651.506
 20
22549.071
 30
0
 11
1654.834
 21
22549.071
 31
0
  0
LINE
  8
0
 62
4
 10
1653.170
 20
22552.399
 30
0
 11
1654.834
 21
22549.071
 31
0
  0
LINE
  8
0
 62
4
 10
1653.170
 20
22552.399
 30
0
 11
1651.506
 21
22549.071
 31
0
  0
LINE
  8
0
 62
4
 10
1770.176
 20
22568.339
 30
0
 11
1773.504
 21
22568.339
 31
0
  0
LINE
  8
0
 62
4
 10
1771.840
 20
22571.667
 30
0
 11
1773.504
 21
22568.339
 31
0
  0
LINE
  8
0
 62
4
 10
1771.840
 20
22571.667
 30
0
 11
1770.176
 21
22568.339
 31
0
  0
LINE
  8
0
 62
4
 10
2063.516
 20
22674.103
 30
0
 11
2066.844
 21
22674.103
 31
0
  0
LINE
  8
0
 62
4
 10
2065.180
 20
22677.431
 30
0
 11
2066.844
 21
22674.103
 31
0
  0
LINE
  8
0
 62
4
 10
2065.180
 20
22677.431
 30
0
 11
2063.516
 21
22674.103
 31
0
  0
LINE
  8
0
 62
4
 10
2116.386
 20
22684.523
 30
0
 11
2119.714
 21
22684.523
 31
0
  0
LINE
  8
0
 62
4
 10
2118.050
 20
22687.851
 30
0
 11
2119.714
 21
22684.523
 31
0
  0
LINE
  8
0
 62
4
 10
2118.050
 20
22687.851
 30
0
 11
2116.386
 21
22684.523
 31
0
  0
LINE
  8
0
 62
4
 10
2219.356
 20
22692.973
 30
0
 11
2222.684
 21
22692.973
 31
0
  0
LINE
  8
0
 62
4
 10
2221.020
 20
22696.300
 30
0
 11
2222.684
 21
22692.973
 31
0
  0
LINE
  8
0
 62
4
 10
2221.020
 20
22696.300
 30
0
 11
2219.356
 21
22692.973
 31
0
  0
LINE
  8
0
 62
4
 10
2399.046
 20
22730.043
 30
0
 11
2402.374
 21
22730.043
 31
0
  0
LINE
  8
0
 62
4
 10
2400.710
 20
22733.371
 30
0
 11
2402.374
 21
22730.043
 31
0
  0
LINE
  8
0
 62
4
 10
2400.710
 20
22733.371
 30
0
 11
2399.046
 21
22730.043
 31
0
  0
LINE
  8
0
 62
4
 10
2477.076
 20
22773.354
 30
0
 11
2480.404
 21
22773.354
 31
0
  0
LINE
  8
0
 62
4
 10
2478.740
 20
22776.681
 30
0
 11
2480.404
 21
22773.354
 31
0
  0
LINE
  8
0
 62
4
 10
2478.740
 20
22776.681
 30
0
 11
2477.076
 21
22773.354
 31
0
  0
LINE
  8
0
 62
4
 10
2492.676
 20
22764.191
 30
0
 11
2496.004
 21
22764.191
 31
0
  0
LINE
  8
0
 62
4
 10
2494.340
 20
22767.519
 30
0
 11
2496.004
 21
22764.191
 31
0
  0
LINE
  8
0
 62
4
 10
2494.340
 20
22767.519
 30
0
 11
2492.676
 21
22764.191
 31
0
  0
LINE
  8
0
 62
4
 10
2502.276
 20
22765.612
 30
0
 11
2505.604
 21
22765.612
 31
0
  0
LINE
  8
0
 62
4
 10
2503.940
 20
22768.940
 30
0
 11
2505.604
 21
22765.612
 31
0
  0
LINE
  8
0
 62
4
 10
2503.940
 20
22768.940
 30
0
 11
2502.276
 21
22765.612
 31
0
  0
LINE
  8
0
 62
4
 10
2511.876
 20
22767.030
 30
0
 11
2515.204
 21
22767.030
 31
0
  0
LINE
  8
0
 62
4
 10
2513.540
 20
22770.358
 30
0
 11
2515.204
 21
22767.030
 31
0
  0
LINE
  8
0
 62
4
 10
2513.540
 20
22770.358
 30
0
 11
2511.876
 21
22767.030
 31
0
  0
LINE
  8
0
 62
4
 10
2521.476
 20
22768.451
 30
0
 11
2524.804
 21
22768.451
 31
0
  0
LINE
  8
0
 62
4
 10
2523.140
 20
22771.779
 30
0
 11
2524.804
 21
22768.451
 31
0
  0
LINE
  8
0
 62
4
 10
2523.140
 20
22771.779
 30
0
 11
2521.476
 21
22768.451
 31
0
  0
LINE
  8
0
 62
4
 10
2531.076
 20
22769.870
 30
0
 11
2534.404
 21
22769.870
 31
0
  0
LINE
  8
0
 62
4
 10
2532.740
 20
22773.197
 30
0
 11
2534.404
 21
22769.870
 31
0
  0
LINE
  8
0
 62
4
 10
2532.740
 20
22773.197
 30
0
 11
2531.076
 21
22769.870
 31
0
  0
LINE
  8
0
 62
4
 10
2540.676
 20
22771.291
 30
0
 11
2544.004
 21
22771.291
 31
0
  0
LINE
  8
0
 62
4
 10
2542.340
 20
22774.618
 30
0
 11
2544.004
 21
22771.291
 31
0
  0
LINE
  8
0
 62
4
 10
2542.340
 20
22774.618
 30
0
 11
2540.676
 21
22771.291
 31
0
  0
LINE
  8
0
 62
4
 10
2550.276
 20
22772.712
 30
0
 11
2553.604
 21
22772.712
 31
0
  0
LINE
  8
0
 62
4
 10
2551.940
 20
22776.039
 30
0
 11
2553.604
 21
22772.712
 31
0
  0
LINE
  8
0
 62
4
 10
2551.940
 20
22776.039
 30
0
 11
2550.276
 21
22772.712
 31
0
  0
LINE
  8
0
 62
4
 10
2559.876
 20
22774.130
 30
0
 11
2563.204
 21
22774.130
 31
0
  0
LINE
  8
0
 62
4
 10
2561.540
 20
22777.458
 30
0
 11
2563.204
 21
22774.130
 31
0
  0
LINE
  8
0
 62
4
 10
2561.540
 20
22777.458
 30
0
 11
2559.876
 21
22774.130
 31
0
  0
LINE
  8
0
 62
4
 10
2569.476
 20
22775.551
 30
0
 11
2572.804
 21
22775.551
 31
0
  0
LINE
  8
0
 62
4
 10
2571.140
 20
22778.879
 30
0
 11
2572.804
 21
22775.551
 31
0
  0
LINE
  8
0
 62
4
 10
2571.140
 20
22778.879
 30
0
 11
2569.476
 21
22775.551
 31
0
  0
LINE
  8
0
 62
4
 10
2579.076
 20
22776.969
 30
0
 11
2582.404
 21
22776.969
 31
0
  0
LINE
  8
0
 62
4
 10
2580.740
 20
22780.297
 30
0
 11
2582.404
 21
22776.969
 31
0
  0
LINE
  8
0
 62
4
 10
2580.740
 20
22780.297
 30
0
 11
2579.076
 21
22776.969
 31
0
  0
LINE
  8
0
 62
4
 10
2588.676
 20
22778.390
 30
0
 11
2592.004
 21
22778.390
 31
0
  0
LINE
  8
0
 62
4
 10
2590.340
 20
22781.718
 30
0
 11
2592.004
 21
22778.390
 31
0
  0
LINE
  8
0
 62
4
 10
2590.340
 20
22781.718
 30
0
 11
2588.676
 21
22778.390
 31
0
  0
LINE
  8
0
 62
4
 10
2598.276
 20
22779.811
 30
0
 11
2601.604
 21
22779.811
 31
0
  0
LINE
  8
0
 62
4
 10
2599.940
 20
22783.139
 30
0
 11
2601.604
 21
22779.811
 31
0
  0
LINE
  8
0
 62
4
 10
2599.940
 20
22783.139
 30
0
 11
2598.276
 21
22779.811
 31
0
  0
LINE
  8
0
 62
4
 10
2607.876
 20
22781.230
 30
0
 11
2611.204
 21
22781.230
 31
0
  0
LINE
  8
0
 62
4
 10
2609.540
 20
22784.557
 30
0
 11
2611.204
 21
22781.230
 31
0
  0
LINE
  8
0
 62
4
 10
2609.540
 20
22784.557
 30
0
 11
2607.876
 21
22781.230
 31
0
  0
LINE
  8
0
 62
4
 10
2617.476
 20
22782.651
 30
0
 11
2620.804
 21
22782.651
 31
0
  0
LINE
  8
0
 62
4
 10
2619.140
 20
22785.978
 30
0
 11
2620.804
 21
22782.651
 31
0
  0
LINE
  8
0
 62
4
 10
2619.140
 20
22785.978
 30
0
 11
2617.476
 21
22782.651
 31
0
  0
LINE
  8
0
 62
4
 10
2627.076
 20
22784.069
 30
0
 11
2630.404
 21
22784.069
 31
0
  0
LINE
  8
0
 62
4
 10
2628.740
 20
22787.397
 30
0
 11
2630.404
 21
22784.069
 31
0
  0
LINE
  8
0
 62
4
 10
2628.740
 20
22787.397
 30
0
 11
2627.076
 21
22784.069
 31
0
  0
LINE
  8
0
 62
4
 10
2636.676
 20
22785.490
 30
0
 11
2640.004
 21
22785.490
 31
0
  0
LINE
  8
0
 62
4
 10
2638.340
 20
22788.817
 30
0
 11
2640.004
 21
22785.490
 31
0
  0
LINE
  8
0
 62
4
 10
2638.340
 20
22788.817
 30
0
 11
2636.676
 21
22785.490
 31
0
  0
LINE
  8
0
 62
4
 10
2639.676
 20
22811.051
 30
0
 11
2643.004
 21
22811.051
 31
0
  0
LINE
  8
0
 62
4
 10
2641.340
 20
22814.379
 30
0
 11
2643.004
 21
22811.051
 31
0
  0
LINE
  8
0
 62
4
 10
2641.340
 20
22814.379
 30
0
 11
2639.676
 21
22811.051
 31
0
  0
LINE
  8
0
 62
4
 10
2729.716
 20
22817.946
 30
0
 11
2733.044
 21
22817.946
 31
0
  0
LINE
  8
0
 62
4
 10
2731.380
 20
22821.274
 30
0
 11
2733.044
 21
22817.946
 31
0
  0
LINE
  8
0
 62
4
 10
2731.380
 20
22821.274
 30
0
 11
2729.716
 21
22817.946
 31
0
  0
LINE
  8
0
 62
4
 10
2818.836
 20
22856.064
 30
0
 11
2822.164
 21
22856.064
 31
0
  0
LINE
  8
0
 62
4
 10
2820.500
 20
22859.391
 30
0
 11
2822.164
 21
22856.064
 31
0
  0
LINE
  8
0
 62
4
 10
2820.500
 20
22859.391
 30
0
 11
2818.836
 21
22856.064
 31
0
  0
LINE
  8
0
 62
4
 10
3014.646
 20
22912.836
 30
0
 11
3017.974
 21
22912.836
 31
0
  0
LINE
  8
0
 62
4
 10
3016.310
 20
22916.164
 30
0
 11
3017.974
 21
22912.836
 31
0
  0
LINE
  8
0
 62
4
 10
3016.310
 20
22916.164
 30
0
 11
3014.646
 21
22912.836
 31
0
  0
LINE
  8
0
 62
4
 10
3297.596
 20
23022.599
 30
0
 11
3300.924
 21
23022.599
 31
0
  0
LINE
  8
0
 62
4
 10
3299.260
 20
23025.927
 30
0
 11
3300.924
 21
23022.599
 31
0
  0
LINE
  8
0
 62
4
 10
3299.260
 20
23025.927
 30
0
 11
3297.596
 21
23022.599
 31
0
999
- - - Line Data - - -
  0
LINE
  8
0
 62
4
 10
0.000
 20
22333.416
 30
0
 11
542.910
 21
22369.158
 31
0
  0
LINE
  8
0
 62
4
 10
542.910
 20
22369.158
 30
0
 11
748.290
 21
22376.360
 31
0
  0
LINE
  8
0
 62
4
 10
748.290
 20
22376.360
 30
0
 11
795.620
 21
22395.396
 31
0
  0
LINE
  8
0
 62
4
 10
795.620
 20
22395.396
 30
0
 11
835.620
 21
22410.117
 31
0
  0
LINE
  8
0
 62
4
 10
835.620
 20
22410.117
 30
0
 11
863.620
 21
22410.117
 31
0
  0
LINE
  8
0
 62
4
 10
863.620
 20
22410.117
 30
0
 11
999.840
 21
22435.630
 31
0
  0
LINE
  8
0
 62
4
 10
999.840
 20
22435.630
 30
0
 11
1246.580
 21
22468.931
 31
0
  0
LINE
  8
0
 62
4
 10
1246.580
 20
22468.931
 30
0
 11
1262.630
 21
22471.816
 31
0
  0
LINE
  8
0
 62
4
 10
1262.630
 20
22471.816
 30
0
 11
1438.670
 21
22510.400
 31
0
  0
LINE
  8
0
 62
4
 10
1438.670
 20
22510.400
 30
0
 11
1576.360
 21
22543.076
 31
0
  0
LINE
  8
0
 62
4
 10
1576.360
 20
22543.076
 30
0
 11
1653.170
 21
22553.379
 31
0
  0
LINE
  8
0
 62
4
 10
1653.170
 20
22553.379
 30
0
 11
1771.840
 21
22573.792
 31
0
  0
LINE
  8
0
 62
4
 10
1771.840
 20
22573.792
 30
0
 11
2065.180
 21
22681.653
 31
0
  0
LINE
  8
0
 62
4
 10
2065.180
 20
22681.653
 30
0
 11
2118.050
 21
22693.213
 31
0
  0
LINE
  8
0
 62
4
 10
2118.050
 20
22693.213
 30
0
 11
2221.020
 21
22699.873
 31
0
  0
LINE
  8
0
 62
4
 10
2221.020
 20
22699.873
 30
0
 11
2400.710
 21
22734.260
 31
0
  0
LINE
  8
0
 62
4
 10
2400.710
 20
22734.260
 30
0
 11
2478.740
 21
22780.830
 31
0
  0
LINE
  8
0
 62
4
 10
2478.740
 20
22780.830
 30
0
 11
2494.340
 21
22830.422
 31
0
  0
LINE
  8
0
 62
4
 10
2494.340
 20
22830.422
 30
0
 11
2638.340
 21
22835.400
 31
0
  0
LINE
  8
0
 62
4
 10
2638.340
 20
22835.400
 30
0
 11
2641.340
 21
22835.400
 31
0
  0
LINE
  8
0
 62
4
 10
2641.340
 20
22835.400
 30
0
 11
2731.380
 21
22840.828
 31
0
  0
LINE
  8
0
 62
4
 10
2731.380
 20
22840.828
 30
0
 11
2820.500
 21
22860.554
 31
0
  0
LINE
  8
0
 62
4
 10
2820.500
 20
22860.554
 30
0
 11
3016.310
 21
22919.514
 31
0
  0
LINE
  8
0
 62
4
 10
3016.310
 20
22919.514
 30
0
 11
3299.260
 21
23029.832
 31
0
999
- - - Symbol Data - - -
  0
LINE
  8
0
 62
4
 10
-1.664
 20
22334.525
 30
0
 11
1.664
 21
22334.525
 31
0
  0
LINE
  8
0
 62
4
 10
0.000
 20
22331.197
 30
0
 11
1.664
 21
22334.525
 31
0
  0
LINE
  8
0
 62
4
 10
0.000
 20
22331.197
 30
0
 11
-1.664
 21
22334.525
 31
0
  0
LINE
  8
0
 62
4
 10
541.246
 20
22370.267
 30
0
 11
544.574
 21
22370.267
 31
0
  0
LINE
  8
0
 62
4
 10
542.910
 20
22366.939
 30
0
 11
544.574
 21
22370.267
 31
0
  0
LINE
  8
0
 62
4
 10
542.910
 20
22366.939
 30
0
 11
541.246
 21
22370.267
 31
0
  0
LINE
  8
0
 62
4
 10
746.626
 20
22377.469
 30
0
 11
749.954
 21
22377.469
 31
0
  0
LINE
  8
0
 62
4
 10
748.290
 20
22374.141
 30
0
 11
749.954
 21
22377.469
 31
0
  0
LINE
  8
0
 62
4
 10
748.290
 20
22374.141
 30
0
 11
746.626
 21
22377.469
 31
0
  0
LINE
  8
0
 62
4
 10
793.956
 20
22396.505
 30
0
 11
797.284
 21
22396.505
 31
0
  0
LINE
  8
0
 62
4
 10
795.620
 20
22393.177
 30
0
 11
797.284
 21
22396.505
 31
0
  0
LINE
  8
0
 62
4
 10
795.620
 20
22393.177
 30
0
 11
793.956
 21
22396.505
 31
0
  0
LINE
  8
0
 62
4
 10
833.956
 20
22411.226
 30
0
 11
837.284
 21
22411.226
 31
0
  0
LINE
  8
0
 62
4
 10
835.620
 20
22407.899
 30
0
 11
837.284
 21
22411.226
 31
0
  0
LINE
  8
0
 62
4
 10
835.620
 20
22407.899
 30
0
 11
833.956
 21
22411.226
 31
0
  0
LINE
  8
0
 62
4
 10
861.956
 20
22411.226
 30
0
 11
865.284
 21
22411.226
 31
0
  0
LINE
  8
0
 62
4
 10
863.620
 20
22407.899
 30
0
 11
865.284
 21
22411.226
 31
0
  0
LINE
  8
0
 62
4
 10
863.620
 20
22407.899
 30
0
 11
861.956
 21
22411.226
 31
0
  0
LINE
  8
0
 62
4
 10
998.176
 20
22436.739
 30
0
 11
1001.504
 21
22436.739
 31
0
  0
LINE
  8
0
 62
4
 10
999.840
 20
22433.412
 30
0
 11
1001.504
 21
22436.739
 31
0
  0
LINE
  8
0
 62
4
 10
999.840
 20
22433.412
 30
0
 11
998.176
 21
22436.739
 31
0
  0
LINE
  8
0
 62
4
 10
1244.916
 20
22470.040
 30
0
 11
1248.244
 21
22470.040
 31
0
  0
LINE
  8
0
 62
4
 10
1246.580
 20
22466.712
 30
0
 11
1248.244
 21
22470.040
 31
0
  0
LINE
  8
0
 62
4
 10
1246.580
 20
22466.712
 30
0
 11
1244.916
 21
22470.040
 31
0
  0
LINE
  8
0
 62
4
 10
1260.966
 20
22472.926
 30
0
 11
1264.294
 21
22472.926
 31
0
  0
LINE
  8
0
 62
4
 10
1262.630
 20
22469.598
 30
0
 11
1264.294
 21
22472.926
 31
0
  0
LINE
  8
0
 62
4
 10
1262.630
 20
22469.598
 30
0
 11
1260.966
 21
22472.926
 31
0
  0
LINE
  8
0
 62
4
 10
1437.006
 20
22511.510
 30
0
 11
1440.334
 21
22511.510
 31
0
  0
LINE
  8
0
 62
4
 10
1438.670
 20
22508.182
 30
0
 11
1440.334
 21
22511.510
 31
0
  0
LINE
  8
0
 62
4
 10
1438.670
 20
22508.182
 30
0
 11
1437.006
 21
22511.510
 31
0
  0
LINE
  8
0
 62
4
 10
1574.696
 20
22544.185
 30
0
 11
1578.024
 21
22544.185
 31
0
  0
LINE
  8
0
 62
4
 10
1576.360
 20
22540.858
 30
0
 11
1578.024
 21
22544.185
 31
0
  0
LINE
  8
0
 62
4
 10
1576.360
 20
22540.858
 30
0
 11
1574.696
 21
22544.185
 31
0
  0
LINE
  8
0
 62
4
 10
1651.506
 20
22554.488
 30
0
 11
1654.834
 21
22554.488
 31
0
  0
LINE
  8
0
 62
4
 10
1653.170
 20
22551.161
 30
0
 11
1654.834
 21
22554.488
 31
0
  0
LINE
  8
0
 62
4
 10
1653.170
 20
22551.161
 30
0
 11
1651.506
 21
22554.488
 31
0
  0
LINE
  8
0
 62
4
 10
1770.176
 20
22574.901
 30
0
 11
1773.504
 21
22574.901
 31
0
  0
LINE
  8
0
 62
4
 10
1771.840
 20
22571.573
 30
0
 11
1773.504
 21
22574.901
 31
0
  0
LINE
  8
0
 62
4
 10
1771.840
 20
22571.573
 30
0
 11
1770.176
 21
22574.901
 31
0
  0
LINE
  8
0
 62
4
 10
2063.516
 20
22682.762
 30
0
 11
2066.844
 21
22682.762
 31
0
  0
LINE
  8
0
 62
4
 10
2065.180
 20
22679.434
 30
0
 11
2066.844
 21
22682.762
 31
0
  0
LINE
  8
0
 62
4
 10
2065.180
 20
22679.434
 30
0
 11
2063.516
 21
22682.762
 31
0
  0
LINE
  8
0
 62
4
 10
2116.386
 20
22694.322
 30
0
 11
2119.714
 21
22694.322
 31
0
  0
LINE
  8
0
 62
4
 10
2118.050
 20
22690.995
 30
0
 11
2119.714
 21
22694.322
 31
0
  0
LINE
  8
0
 62
4
 10
2118.050
 20
22690.995
 30
0
 11
2116.386
 21
22694.322
 31
0
  0
LINE
  8
0
 62
4
 10
2219.356
 20
22700.982
 30
0
 11
2222.684
 21
22700.982
 31
0
  0
LINE
  8
0
 62
4
 10
2221.020
 20
22697.655
 30
0
 11
2222.684
 21
22700.982
 31
0
  0
LINE
  8
0
 62
4
 10
2221.020
 20
22697.655
 30
0
 11
2219.356
 21
22700.982
 31
0
  0
LINE
  8
0
 62
4
 10
2399.046
 20
22735.369
 30
0
 11
2402.374
 21
22735.369
 31
0
  0
LINE
  8
0
 62
4
 10
2400.710
 20
22732.042
 30
0
 11
2402.374
 21
22735.369
 31
0
  0
LINE
  8
0
 62
4
 10
2400.710
 20
22732.042
 30
0
 11
2399.046
 21
22735.369
 31
0
  0
LINE
  8
0
 62
4
 10
2477.076
 20
22781.939
 30
0
 11
2480.404
 21
22781.939
 31
0
  0
LINE
  8
0
 62
4
 10
2478.740
 20
22778.612
 30
0
 11
2480.404
 21
22781.939
 31
0
  0
LINE
  8
0
 62
4
 10
2478.740
 20
22778.612
 30
0
 11
2477.076
 21
22781.939
 31
0
  0
LINE
  8
0
 62
4
 10
2492.676
 20
22831.532
 30
0
 11
2496.004
 21
22831.532
 31
0
  0
LINE
  8
0
 62
4
 10
2494.340
 20
22828.204
 30
0
 11
2496.004
 21
22831.532
 31
0
  0
LINE
  8
0
 62
4
 10
2494.340
 20
22828.204
 30
0
 11
2492.676
 21
22831.532
 31
0
  0
LINE
  8
0
 62
4
 10
2636.676
 20
22836.510
 30
0
 11
2640.004
 21
22836.510
 31
0
  0
LINE
  8
0
 62
4
 10
2638.340
 20
22833.182
 30
0
 11
2640.004
 21
22836.510
 31
0
  0
LINE
  8
0
 62
4
 10
2638.340
 20
22833.182
 30
0
 11
2636.676
 21
22836.510
 31
0
  0
LINE
  8
0
 62
4
 10
2639.676
 20
22836.510
 30
0
 11
2643.004
 21
22836.510
 31
0
  0
LINE
  8
0
 62
4
 10
2641.340
 20
22833.182
 30
0
 11
2643.004
 21
22836.510
 31
0
  0
LINE
  8
0
 62
4
 10
2641.340
 20
22833.182
 30
0
 11
2639.676
 21
22836.510
 31
0
  0
LINE
  8
0
 62
4
 10
2729.716
 20
22841.937
 30
0
 11
2733.044
 21
22841.937
 31
0
  0
LINE
  8
0
 62
4
 10
2731.380
 20
22838.609
 30
0
 11
2733.044
 21
22841.937
 31
0
  0
LINE
  8
0
 62
4
 10
2731.380
 20
22838.609
 30
0
 11
2729.716
 21
22841.937
 31
0
  0
LINE
  8
0
 62
4
 10
2818.836
 20
22861.663
 30
0
 11
2822.164
 21
22861.663
 31
0
  0
LINE
  8
0
 62
4
 10
2820.500
 20
22858.336
 30
0
 11
2822.164
 21
22861.663
 31
0
  0
LINE
  8
0
 62
4
 10
2820.500
 20
22858.336
 30
0
 11
2818.836
 21
22861.663
 31
0
  0
LINE
  8
0
 62
4
 10
3014.646
 20
22920.623
 30
0
 11
3017.974
 21
22920.623
 31
0
  0
LINE
  8
0
 62
4
 10
3016.310
 20
22917.296
 30
0
 11
3017.974
 21
22920.623
 31
0
  0
LINE
  8
0
 62
4
 10
3016.310
 20
22917.296
 30
0
 11
3014.646
 21
22920.623
 31
0
  0
LINE
  8
0
 62
4
 10
3297.596
 20
23030.941
 30
0
 11
3300.924
 21
23030.941
 31
0
  0
LINE
  8
0
 62
4
 10
3299.260
 20
23027.613
 30
0
 11
3300.924
 21
23030.941
 31
0
  0
LINE
  8
0
 62
4
 10
3299.260
 20
23027.613
 30
0
 11
3297.596
 21
23030.941
 31
0
999
- - - Line Data - - -
  0
LINE
  8
0
 62
4
 10
0.000
 20
22335.618
 30
0
 11
542.910
 21
22371.694
 31
0
  0
LINE
  8
0
 62
4
 10
542.910
 20
22371.694
 30
0
 11
748.290
 21
22378.699
 31
0
  0
LINE
  8
0
 62
4
 10
748.290
 20
22378.699
 30
0
 11
795.620
 21
22396.416
 31
0
  0
LINE
  8
0
 62
4
 10
795.620
 20
22396.416
 30
0
 11
835.620
 21
22411.611
 31
0
  0
LINE
  8
0
 62
4
 10
835.620
 20
22411.611
 30
0
 11
863.620
 21
22411.611
 31
0
  0
LINE
  8
0
 62
4
 10
863.620
 20
22411.611
 30
0
 11
999.840
 21
22437.285
 31
0
  0
LINE
  8
0
 62
4
 10
999.840
 20
22437.285
 30
0
 11
1246.580
 21
22470.330
 31
0
  0
LINE
  8
0
 62
4
 10
1246.580
 20
22470.330
 30
0
 11
1262.630
 21
22473.042
 31
0
  0
LINE
  8
0
 62
4
 10
1262.630
 20
22473.042
 30
0
 11
1438.670
 21
22513.672
 31
0
  0
LINE
  8
0
 62
4
 10
1438.670
 20
22513.672
 30
0
 11
1576.360
 21
22548.364
 31
0
  0
LINE
  8
0
 62
4
 10
1576.360
 20
22548.364
 30
0
 11
1653.170
 21
22559.548
 31
0
  0
LINE
  8
0
 62
4
 10
1653.170
 20
22559.548
 30
0
 11
1771.840
 21
22581.733
 31
0
  0
LINE
  8
0
 62
4
 10
1771.840
 20
22581.733
 30
0
 11
2065.180
 21
22695.850
 31
0
  0
LINE
  8
0
 62
4
 10
2065.180
 20
22695.850
 30
0
 11
2118.050
 21
22710.688
 31
0
  0
LINE
  8
0
 62
4
 10
2118.050
 20
22710.688
 30
0
 11
2221.020
 21
22715.791
 31
0
  0
LINE
  8
0
 62
4
 10
2221.020
 20
22715.791
 30
0
 11
2400.710
 21
22745.332
 31
0
  0
LINE
  8
0
 62
4
 10
2400.710
 20
22745.332
 30
0
 11
2478.740
 21
22800.293
 31
0
  0
LINE
  8
0
 62
4
 10
2478.740
 20
22800.293
 30
0
 11
2494.340
 21
22840.256
 31
0
  0
LINE
  8
0
 62
4
 10
2494.340
 20
22840.256
 30
0
 11
2638.340
 21
22846.394
 31
0
  0
LINE
  8
0
 62
4
 10
2638.340
 20
22846.394
 30
0
 11
2641.340
 21
22846.394
 31
0
  0
LINE
  8
0
 62
4
 10
2641.340
 20
22846.394
 30
0
 11
2731.380
 21
22857.732
 31
0
  0
LINE
  8
0
 62
4
 10
2731.380
 20
22857.732
 30
0
 11
2820.500
 21
22870.166
 31
0
  0
LINE
  8
0
 62
4
 10
2820.500
 20
22870.166
 30
0
 11
3016.310
 21
22930.886
 31
0
  0
LINE
  8
0
 62
4
 10
3016.310
 20
22930.886
 30
0
 11
3299.260
 21
23042.158
 31
0
999
- - - Symbol Data - - -
  0
LINE
  8
0
 62
4
 10
-1.664
 20
22333.954
 30
0
 11
1.664
 21
22337.281
 31
0
  0
LINE
  8
0
 62
4
 10
-1.664
 20
22337.281
 30
0
 11
1.664
 21
22333.954
 31
0
  0
LINE
  8
0
 62
4
 10
541.246
 20
22370.031
 30
0
 11
544.574
 21
22373.358
 31
0
  0
LINE
  8
0
 62
4
 10
541.246
 20
22373.358
 30
0
 11
544.574
 21
22370.031
 31
0
  0
LINE
  8
0
 62
4
 10
746.626
 20
22377.035
 30
0
 11
749.954
 21
22380.363
 31
0
  0
LINE
  8
0
 62
4
 10
746.626
 20
22380.363
 30
0
 11
749.954
 21
22377.035
 31
0
  0
LINE
  8
0
 62
4
 10
793.956
 20
22394.752
 30
0
 11
797.284
 21
22398.080
 31
0
  0
LINE
  8
0
 62
4
 10
793.956
 20
22398.080
 30
0
 11
797.284
 21
22394.752
 31
0
  0
LINE
  8
0
 62
4
 10
833.956
 20
22409.948
 30
0
 11
837.284
 21
22413.275
 31
0
  0
LINE
  8
0
 62
4
 10
833.956
 20
22413.275
 30
0
 11
837.284
 21
22409.948
 31
0
  0
LINE
  8
0
 62
4
 10
861.956
 20
22409.948
 30
0
 11
865.284
 21
22413.275
 31
0
  0
LINE
  8
0
 62
4
 10
861.956
 20
22413.275
 30
0
 11
865.284
 21
22409.948
 31
0
  0
LINE
  8
0
 62
4
 10
998.176
 20
22435.621
 30
0
 11
1001.504
 21
22438.949
 31
0
  0
LINE
  8
0
 62
4
 10
998.176
 20
22438.949
 30
0
 11
1001.504
 21
22435.621
 31
0
  0
LINE
  8
0
 62
4
 10
1244.916
 20
22468.666
 30
0
 11
1248.244
 21
22471.993
 31
0
  0
LINE
  8
0
 62
4
 10
1244.916
 20
22471.993
 30
0
 11
1248.244
 21
22468.666
 31
0
  0
LINE
  8
0
 62
4
 10
1260.966
 20
22471.378
 30
0
 11
1264.294
 21
22474.706
 31
0
  0
LINE
  8
0
 62
4
 10
1260.966
 20
22474.706
 30
0
 11
1264.294
 21
22471.378
 31
0
  0
LINE
  8
0
 62
4
 10
1437.006
 20
22512.008
 30
0
 11
1440.334
 21
22515.336
 31
0
  0
LINE
  8
0
 62
4
 10
1437.006
 20
22515.336
 30
0
 11
1440.334
 21
22512.008
 31
0
  0
LINE
  8
0
 62
4
 10
1574.696
 20
22546.700
 30
0
 11
1578.024
 21
22550.028
 31
0
  0
LINE
  8
0
 62
4
 10
1574.696
 20
22550.028
 30
0
 11
1578.024
 21
22546.700
 31
0
  0
LINE
  8
0
 62
4
 10
1651.506
 20
22557.885
 30
0
 11
1654.834
 21
22561.212
 31
0
  0
LINE
  8
0
 62
4
 10
1651.506
 20
22561.212
 30
0
 11
1654.834
 21
22557.885
 31
0
  0
LINE
  8
0
 62
4
 10
1770.176
 20
22580.070
 30
0
 11
1773.504
 21
22583.397
 31
0
  0
LINE
  8
0
 62
4
 10
1770.176
 20
22583.397
 30
0
 11
1773.504
 21
22580.070
 31
0
  0
LINE
  8
0
 62
4
 10
2063.516
 20
22694.186
 30
0
 11
2066.844
 21
22697.513
 31
0
  0
LINE
  8
0
 62
4
 10
2063.516
 20
22697.513
 30
0
 11
2066.844
 21
22694.186
 31
0
  0
LINE
  8
0
 62
4
 10
2116.386
 20
22709.025
 30
0
 11
2119.714
 21
22712.352
 31
0
  0
LINE
  8
0
 62
4
 10
2116.386
 20
22712.352
 30
0
 11
2119.714
 21
22709.025
 31
0
  0
LINE
  8
0
 62
4
 10
2219.356
 20
22714.127
 30
0
 11
2222.684
 21
22717.455
 31
0
  0
LINE
  8
0
 62
4
 10
2219.356
 20
22717.455
 30
0
 11
2222.684
 21
22714.127
 31
0
  0
LINE
  8
0
 62
4
 10
2399.046
 20
22743.668
 30
0
 11
2402.374
 21
22746.996
 31
0
  0
LINE
  8
0
 62
4
 10
2399.046
 20
22746.996
 30
0
 11
2402.374
 21
22743.668
 31
0
  0
LINE
  8
0
 62
4
 10
2477.076
 20
22798.629
 30
0
 11
2480.404
 21
22801.957
 31
0
  0
LINE
  8
0
 62
4
 10
2477.076
 20
22801.957
 30
0
 11
2480.404
 21
22798.629
 31
0
  0
LINE
  8
0
 62
4
 10
2492.676
 20
22838.593
 30
0
 11
2496.004
 21
22841.920
 31
0
  0
LINE
  8
0
 62
4
 10
2492.676
 20
22841.920
 30
0
 11
2496.004
 21
22838.593
 31
0
  0
LINE
  8
0
 62
4
 10
2636.676
 20
22844.730
 30
0
 11
2640.004
 21
22848.058
 31
0
  0
LINE
  8
0
 62
4
 10
2636.676
 20
22848.058
 30
0
 11
2640.004
 21
22844.730
 31
0
  0
LINE
  8
0
 62
4
 10
2639.676
 20
22844.730
 30
0
 11
2643.004
 21
22848.058
 31
0
  0
LINE
  8
0
 62
4
 10
2639.676
 20
22848.058
 30
0
 11
2643.004
 21
22844.730
 31
0
  0
LINE
  8
0
 62
4
 10
2729.716
 20
22856.068
 30
0
 11
2733.044
 21
22859.396
 31
0
  0
LINE
  8
0
 62
4
 10
2729.716
 20
22859.396
 30
0
 11
2733.044
 21
22856.068
 31
0
  0
LINE
  8
0
 62
4
 10
2818.836
 20
22868.502
 30
0
 11
2822.164
 21
22871.830
 31
0
  0
LINE
  8
0
 62
4
 10
2818.836
 20
22871.830
 30
0
 11
2822.164
 21
22868.502
 31
0
  0
LINE
  8
0
 62
4
 10
3014.646
 20
22929.222
 30
0
 11
3017.974
 21
22932.550
 31
0
  0
LINE
  8
0
 62
4
 10
3014.646
 20
22932.550
 30
0
 11
3017.974
 21
22929.222
 31
0
  0
LINE
  8
0
 62
4
 10
3297.596
 20
23040.494
 30
0
 11
3300.924
 21
23043.822
 31
0
  0
LINE
  8
0
 62
4
 10
3297.596
 20
23043.822
 30
0
 11
3300.924
 21
23040.494
 31
0
  0
ENDSEC
  0
EOF
