  0
SECTION
  2
HEADER
  9
$ACADVER
  1
AC1009
  9
$INSBASE
 10
0.0
 20
0.0
 30
0.0
  9
$EXTMIN
 10
1.000000E+20
 20
1.000000E+20
 30
1.000000E+20
  9
$EXTMAX
 10
-1.000000E+20
 20
-1.000000E+20
 30
-1.000000E+20
  9
$LIMMIN
 10
0.0
 20
0.0
  9
$LIMMAX
 10
12.0
 20
9.0
  9
$ORTHOMODE
 70
     1
  9
$REGENMODE
 70
     1
  9
$FILLMODE
 70
     1
  9
$QTEXTMODE
 70
     0
  9
$MIRRTEXT
 70
     1
  9
$DRAGMODE
 70
     2
  9
$LTSCALE
 40
100.0
  9
$OSMODE
 70
     0
  9
$ATTMODE
 70
     1
  9
$TEXTSIZE
 40
0.2
  9
$TRACEWID
 40
0.05
  9
$TEXTSTYLE
  7
STANDARD
  9
$CLAYER
  8
SYMBOL
  9
$CELTYPE
  6
BYLAYER
  9
$CECOLOR
 62
     2
  9
$DIMSCALE
 40
1.0
  9
$DIMASZ
 40
0.18
  9
$DIMEXO
 40
0.0625
  9
$DIMDLI
 40
0.38
  9
$DIMRND
 40
0.0
  9
$DIMDLE
 40
0.0
  9
$DIMEXE
 40
0.18
  9
$DIMTP
 40
0.0
  9
$DIMTM
 40
0.0
  9
$DIMTXT
 40
0.18
  9
$DIMCEN
 40
0.09
  9
$DIMTSZ
 40
0.0
  9
$DIMTOL
 70
     0
  9
$DIMLIM
 70
     0
  9
$DIMTIH
 70
     1
  9
$DIMTOH
 70
     1
  9
$DIMSE1
 70
     0
  9
$DIMSE2
 70
     0
  9
$DIMTAD
 70
     0
  9
$DIMZIN
 70
     0
  9
$DIMBLK
  1

  9
$DIMASO
 70
     1
  9
$DIMSHO
 70
     1
  9
$DIMPOST
  1

  9
$DIMAPOST
  1

  9
$DIMALT
 70
     0
  9
$DIMALTD
 70
     2
  9
$DIMALTF
 40
25.4
  9
$DIMLFAC
 40
1.0
  9
$DIMTOFL
 70
     0
  9
$DIMTVP
 40
0.0
  9
$DIMTIX
 70
     0
  9
$DIMSOXD
 70
     0
  9
$DIMSAH
 70
     0
  9
$DIMBLK1
  1

  9
$DIMBLK2
  1

  9
$DIMSTYLE
  2
STANDARD
  9
$DIMCLRD
 70
     0
  9
$DIMCLRE
 70
     0
  9
$DIMCLRT
 70
     0
  9
$DIMTFAC
 40
1.0
  9
$DIMGAP
 40
0.09
  9
$LUNITS
 70
     2
  9
$LUPREC
 70
     4
  9
$AXISMODE
 70
     0
  9
$AXISUNIT
 10
0.0
 20
0.0
  9
$SKETCHINC
 40
0.1
  9
$FILLETRAD
 40
0.0
  9
$AUNITS
 70
     0
  9
$AUPREC
 70
     0
  9
$MENU
  1
acad
  9
$ELEVATION
 40
500.0
  9
$PELEVATION
 40
0.0
  9
$THICKNESS
 40
0.0
  9
$LIMCHECK
 70
     0
  9
$BLIPMODE
 70
     1
  9
$CHAMFERA
 40
0.0
  9
$CHAMFERB
 40
0.0
  9
$SKPOLY
 70
     0
  9
$TDCREATE
 40
0.000000000
  9
$TDUPDATE
 40
0.000000000
  9
$TDINDWG
 40
0.0000000000
  9
$TDUSRTIMER
 40
0.0000000000
  9
$USRTIMER
 70
     1
  9
$ANGBASE
 50
0.0
  9
$ANGDIR
 70
     0
  9
$PDMODE
 70
     0
  9
$PDSIZE
 40
0.0
  9
$PLINEWID
 40
0.0
  9
$COORDS
 70
     0
  9
$SPLFRAME
 70
     0
  9
$SPLINETYPE
 70
     6
  9
$SPLINESEGS
 70
     8
  9
$ATTDIA
 70
     0
  9
$ATTREQ
 70
     1
  9
$HANDLING
 70
     1
  9
$HANDSEED
  5
514
  9
$SURFTAB1
 70
     6
  9
$SURFTAB2
 70
     6
  9
$SURFTYPE
 70
     6
  9
$SURFU
 70
     6
  9
$SURFV
 70
     6
  9
$UCSNAME
  2

  9
$UCSORG
 10
0.0
 20
0.0
 30
0.0
  9
$UCSXDIR
 10
1.0
 20
0.0
 30
0.0
  9
$UCSYDIR
 10
0.0
 20
1.0
 30
0.0
  9
$PUCSNAME
  2

  9
$PUCSORG
 10
0.0
 20
0.0
 30
0.0
  9
$PUCSXDIR
 10
1.0
 20
0.0
 30
0.0
  9
$PUCSYDIR
 10
0.0
 20
1.0
 30
0.0
  9
$USERI1
 70
     0
  9
$USERI2
 70
     0
  9
$USERI3
 70
     0
  9
$USERI4
 70
     0
  9
$USERI5
 70
     0
  9
$USERR1
 40
0.0
  9
$USERR2
 40
0.0
  9
$USERR3
 40
0.0
  9
$USERR4
 40
0.0
  9
$USERR5
 40
0.0
  9
$WORLDVIEW
 70
     1
  9
$SHADEDGE
 70
     3
  9
$SHADEDIF
 70
    70
  9
$TILEMODE
 70
     1
  9
$MAXACTVP
 70
    16
  9
$PINSBASE
 10
0.0
 20
0.0
 30
0.0
  9
$PLIMCHECK
 70
     0
  9
$PEXTMIN
 10
1.000000E+20
 20
1.000000E+20
 30
1.000000E+20
  9
$PEXTMAX
 10
-1.000000E+20
 20
-1.000000E+20
 30
-1.000000E+20
  9
$PLIMMIN
 10
0.0
 20
0.0
  9
$PLIMMAX
 10
12.0
 20
9.0
  9
$UNITMODE
 70
     0
  9
$VISRETAIN
 70
     0
  0
ENDSEC
  0
SECTION
  2
TABLES
  0
TABLE
  2
VPORT
 70
     1
  0
VPORT
  2
*ACTIVE
 70
     0
 10
0.0
 20
0.0
 11
1.0
 21
1.0
 12
6.591288
 22
4.579184
 13
0.0
 23
0.0
 14
1.0
 24
1.0
 15
0.0
 25
0.0
 16
0.0
 26
0.0
 36
1.0
 17
0.0
 27
0.0
 37
0.0
 40
9.158369
 41
0.688564
 42
50.0
 43
0.0
 44
0.0
 50
0.0
 51
0.0
 71
     0
 72
   100
 73
     1
 74
     1
 75
     0
 76
     0
 77
     0
 78
     0
  0
ENDTAB
  0
TABLE
  2
LTYPE
 70
    25
  0
LTYPE
  2
CONTINUOUS
 70
    64
  3
Solid line
 72
    65
 73
     0
 40
0.0
  0
LTYPE
  2
CENTER
 70
    64
  3
CENTER____ _ ____ _ ____ _ ____ _ ____ _ ____
 72
    65
 73
     4
 40
2.0
 49
1.25
 49
-0.25
 49
0.25
 49
-0.25
  0
LTYPE
  2
DASHDOT
 70
    64
  3
DASHDOT__ . __ . __ . __ . __ . __ . __ . __
 72
    65
 73
     4
 40
1.0
 49
0.5
 49
-0.25
 49
0.0
 49
-0.25
  0
LTYPE
  2
DASHED
 70
    64
  3
DASHED__ __ __ __ __ __ __ __ __ __ __ __ __ _
 72
    65
 73
     4
 40
0.75
 49
0.5
 49
-0.25
 49
0.0
 49
0.0
  0
LTYPE
  2
HIDDEN
 70
    64
  3
HIDDEN__ __ __ __ __ __ __ __ __ __ __ __ __ __
 72
    65
 73
     4
 40
0.375
 49
0.25
 49
-0.125
 49
0.0
 49
0.0
  0
LTYPE
  2
HIDDEN2
 70
    64
  3
HIDDEN2_ _ _ _ _ _ _ _ _ _ _ _ _ _ _ _ _ 
 72
    65
 73
     4
 40
0.1875
 49
0.125
 49
-0.0625
 49
0.0
 49
0.0
  0
LTYPE
  2
BORDER
 70
    64
  3
BORDER __ __ . __ __ . __ __ . __ __ . __ __ .
 72
    65
 73
     5
 40
1.75
 49
0.5
 49
-0.25
 49
0.5
 49
-0.25
 49
0.0
  0
LTYPE
  2
BORDER2
 70
    64
  3
BORDER2  __.__.__.__.__.__.__.__.__.__.__.
 72
    65
 73
     6
 40
0.875
 49
0.25
 49
-0.125
 49
0.25
 49
-0.125
 49
0.0
 49
-0.125
  0
LTYPE
  2
BORDERX2
 70
    64
  3
BORDERX2 ____  ____  .  ____  ____  .  ___
 72
    65
 73
     6
 40
3.5
 49
1.0
 49
-0.5
 49
1.0
 49
-0.5
 49
0.0
 49
-0.5
  0
LTYPE
  2
CENTER2
 70
    64
  3
CENTER2 ___ _ ___ _ ___ _ ___ _ ___ _ ___
 72
    65
 73
     4
 40
1.125
 49
0.75
 49
-0.125
 49
0.125
 49
-0.125
  0
LTYPE
  2
CENTERX2
 70
    64
  3
CENTERX2 ________  __  ________  __  _____
 72
    65
 73
     4
 40
4.0
 49
2.5
 49
-0.5
 49
0.5
 49
-0.5
  0
LTYPE
  2
DASHDOT2
 70
    64
  3
DASHDOT2  _._._._._._._._._._._._._._._.
 72
    65
 73
     4
 40
4.0
 49
0.25
 49
-0.125
 49
0.0
 49
-0.125
  0
LTYPE
  2
DASHDOTX2
 70
    64
  3
DASHDOTX2 ____  .  ____  .  ____  .  ___
 72
    65
 73
     3
 40
2.0
 49
1.0
 49
-0.5
 49
0.0
  0
LTYPE
  2
DASHED2
 70
    64
  3
DASHED2 _ _ _ _ _ _ _ _ _ _ _ _ _ _ _ _ _ 
 72
    65
 73
     2
 40
0.15
 49
0.25
 49
-0.125
  0
LTYPE
  2
DASHEDX2
 70
    64
  3
DASHEDX2 ____  ____  ____  ____  ____  ___
 72
    65
 73
     2
 40
1.5
 49
1.0
 49
-0.5
  0
LTYPE
  2
DIVIDE
 70
    64
  3
DIVIDE  ____ . . ____ . . ____ . . ____ . . ____
 72
    65
 73
     6
 40
1.25
 49
0.5
 49
-0.25
 49
0.0
 49
-0.25
 49
0.0
 49
-0.25
  0
LTYPE
  2
DIVIDE2
 70
    64
  3
DIVIDE2  __..__..__..__..__..__..__..__.._
 72
    65
 73
     6
 40
0.625
 49
0.25
 49
-0.125
 49
0.0
 49
-0.125
 49
0.0
 49
-0.125
  0
LTYPE
  2
DIVIDEX2
 70
    64
  3
DIVIDEX2  ________  .  .  ________  .  .  _
 72
    65
 73
     6
 40
2.5
 49
1.0
 49
-0.5
 49
0.0
 49
-0.5
 49
0.0
 49
-0.5
  0
LTYPE
  2
DOT
 70
    64
  3
DOT . . . . . . . . . . . . . . . . . . . . . . . .
 72
    65
 73
     2
 40
0.25
 49
0.0
 49
-0.25
  0
LTYPE
  2
DOT2
 70
    64
  3
DOT2  ........................................
 72
    65
 73
     2
 40
0.125
 49
0.0
 49
-0.125
  0
LTYPE
  2
DOTX2
 70
    64
  3
DOTX2 .  .  .  .  .  .  .  .  .  .  .  .  .  .
 72
    65
 73
     2
 40
0.5
 49
0.0
 49
-0.5
  0
LTYPE
  2
HIDDENX2
 70
    64
  3
HIDDENX2  ____ ____ ____ ____ ____ ____ ____ 
 72
    65
 73
     2
 40
0.75
 49
0.5
 49
-0.25
  0
LTYPE
  2
PHANTOM
 70
    64
  3
PHANTOM  ______  __  __  ______  __  __  ______ 
 72
    65
 73
     6
 40
2.5
 49
1.25
 49
-0.25
 49
0.25
 49
-0.25
 49
0.25
 49
-0.25
  0
LTYPE
  2
PHANTOM2
 70
    64
  3
PHANTOM2  ___ _ _ ___ _ _ ___ _ _ ___ _ _
 72
    65
 73
     6
 40
1.25
 49
0.625
 49
-0.125
 49
0.125
 49
-0.125
 49
0.125
 49
-0.125
  0
LTYPE
  2
PHANTOMX2
 70
    64
  3
PHANTOMX2 ____________    ____    ____   _
 72
    65
 73
     6
 40
5.0
 49
2.5
 49
-0.5
 49
0.5
 49
-0.5
 49
0.5
 49
-0.5
  0
ENDTAB
  0
TABLE
  2
LAYER
 70
    25
  0
LAYER
  2
0
 70
     0
 62
     7
  6
CONTINUOUS
  0
LAYER
  2
SYMBOL
 70
     0
 62
     3
  6
CONTINUOUS
  0
LAYER
  2
WS10
 70
     0
 62
     4
  6
HIDDEN
  0
LAYER
  2
STREAM
 70
     0
 62
     5
  6
CONTINUOUS
  0
LAYER
  2
WS100
 70
     0
 62
     5
  6
PHANTOM
  0
LAYER
  2
WS500
 70
     0
 62
     1
  6
CONTINUOUS
  0
LAYER
  2
STRUCTURE
 70
     0
 62
     3
  6
CONTINUOUS
  0
LAYER
  2
WS50
 70
     0
 62
     1
  6
CENTER
  0
LAYER
  2
GRIDS
 70
     0
 62
     7
  6
CONTINUOUS
  0
LAYER
  2
TEXT
 70
     0
 62
     7
  6
CONTINUOUS
  0
LAYER
  2
ROCK
 70
     0
 62
     7
  6
CONTINUOUS
  0
LAYER
  2
XSEC
 70
     0
 62
     7
  6
CONTINUOUS
  0
LAYER
  2
CULVERT
 70
     0
 62
     7
  6
CONTINUOUS
  0
LAYER
  2
HATCH
 70
     0
 62
     7
  6
CONTINUOUS
  0
LAYER
  2
XSECTEXTLINE
 70
     0
 62
     7
  6
CONTINUOUS
  0
LAYER
  2
LEGEND_BOX
 70
     0
 62
     7
  6
CONTINUOUS
  0
LAYER
  2
LEGEND_XSEC
 70
     0
 62
     7
  6
CONTINUOUS
  0
LAYER
  2
BRIDGE
 70
     0
 62
     7
  6
CONTINUOUS
  0
LAYER
  2
BORDERLINE
 70
     0
 62
     7
  6
CONTINUOUS
  0
LAYER
  2
GRID_MAJOR
 70
     0
 62
     7
  6
CONTINUOUS
  0
LAYER
  2
GRID_MINOR
 70
     0
 62
     7
  6
CONTINUOUS
  0
LAYER
  2
BACKWATER
 70
     0
 62
     7
  6
CONTINUOUS
  0
LAYER
  2
LEADER
 70
     0
 62
     7
  6
CONTINUOUS
  0
LAYER
  2
DAM
 70
     0
 62
     7
  6
CONTINUOUS
  0
LAYER
  2
XSEC_LINE
 70
     0
 62
     7
  6
CONTINUOUS
  0
ENDTAB
  0
TABLE
  2
STYLE
 70
     2
  0
STYLE
  2
STANDARD
 70
     0
 40
0.0
 41
1.0
 50
0.0
 71
     0
 42
0.2
  3
txt
  4

  0
STYLE
  2
ROMANT
 70
     0
 40
0.0
 41
1.0
 50
0.0
 71
     0
 42
0.2
  3

  4

  0
ENDTAB
  0
TABLE
  2
VIEW
 70
     0
  0
ENDTAB
  0
TABLE
  2
UCS
 70
     0
  0
ENDTAB
  0
TABLE
  2
APPID
 70
     4
  0
APPID
  2
ACAD
 70
     0
  0
APPID
  2
VDEXTRAPARAM
 70
     0
  0
APPID
  2
VD_XPROPERTIES
 70
     0
  0
APPID
  2
VD_TEMPHATCH
 70
     0
  0
ENDTAB
  0
TABLE
  2
DIMSTYLE
 70
     1
  0
DIMSTYLE
  2
STANDARD
 70
     0
  3

  4

  5

  6

  7

 40
1.0
 41
100.0
 42
0.0625
 43
0.38
 44
0.18
 45
0.0
 46
0.0
 47
0.0
 48
0.0
 71
     0
 72
     0
 73
     1
 74
     1
 75
     0
 76
     0
 77
     0
 78
     0
140
50.0
141
0.09
142
0.0
143
25.4
144
1.0
145
0.0
146
1.0
147
0.09
170
     0
171
     2
172
     0
173
     0
174
     0
175
     0
176
     0
177
     0
178
     0
  0
ENDTAB
  0
ENDSEC
  0
SECTION
  2
BLOCKS
  0
BLOCK
  8
0
  5
5B
  2
BAR
 70
     0
 10
0.0
 20
0.0
 30
0.0
  3
BAR
1001
VD_XPROPERTIES
  0
LINE
  8
BRIDGE
 62
     1
  5
5C
 10
-0.05
 20
0.0
 30
0.0
 11
0.05
 21
0.0
 31
0.0
1001
VD_XPROPERTIES
  0
ENDBLK
  8
0
  5
5D
  0
BLOCK
  8
0
  5
5E
  2
BORDER
 70
     0
 10
0.0
 20
0.0
 30
0.0
  3
BORDER
1001
VD_XPROPERTIES
  0
POLYLINE
  8
BORDERLINE
  5
5F
 66
     1
 10
0.0
 20
0.0
 30
0.0
1001
VDEXTRAPARAM
1071
        0
1071
        0
1071
        0
1040
1.0
1000

1000

1001
VD_XPROPERTIES
  0
VERTEX
  8
BORDERLINE
  5
60
 10
-0.999833
 20
-0.75
 30
0.0
  0
VERTEX
  8
BORDERLINE
  5
61
 10
14.500167
 20
-0.75
 30
0.0
  0
VERTEX
  8
BORDERLINE
  5
62
 10
14.500167
 20
9.25
 30
0.0
  0
VERTEX
  8
BORDERLINE
  5
63
 10
-0.999833
 20
9.25
 30
0.0
  0
VERTEX
  8
BORDERLINE
  5
64
 10
-0.999833
 20
-0.75
 30
0.0
  0
VERTEX
  8
BORDERLINE
  5
65
 10
-0.999833
 20
-0.75
 30
0.0
  0
SEQEND
  8
0
  5
66
  0
POLYLINE
  8
GRID_MAJOR
  5
67
 66
     1
 10
0.0
 20
0.0
 30
0.0
1001
VDEXTRAPARAM
1071
        0
1071
        0
1071
        0
1040
1.0
1000

1000

1001
VD_XPROPERTIES
  0
VERTEX
  8
GRID_MAJOR
  5
68
 10
2.0
 20
0.0
 30
0.0
  0
VERTEX
  8
GRID_MAJOR
  5
69
 10
2.0
 20
9.0
 30
0.0
  0
SEQEND
  8
0
  5
6A
  0
POLYLINE
  8
GRID_MAJOR
  5
6B
 66
     1
 10
0.0
 20
0.0
 30
0.0
1001
VDEXTRAPARAM
1071
        0
1071
        0
1071
        0
1040
1.0
1000

1000

1001
VD_XPROPERTIES
  0
VERTEX
  8
GRID_MAJOR
  5
6C
 10
1.0
 20
0.0
 30
0.0
  0
VERTEX
  8
GRID_MAJOR
  5
6D
 10
1.0
 20
9.0
 30
0.0
  0
SEQEND
  8
0
  5
6E
  0
POLYLINE
  8
GRID_MAJOR
  5
6F
 66
     1
 10
0.0
 20
0.0
 30
0.0
1001
VDEXTRAPARAM
1071
        0
1071
        0
1071
        0
1040
1.0
1000

1000

1001
VD_XPROPERTIES
  0
VERTEX
  8
GRID_MAJOR
  5
70
 10
0.0
 20
0.0
 30
0.0
  0
VERTEX
  8
GRID_MAJOR
  5
71
 10
0.0
 20
9.0
 30
0.0
  0
SEQEND
  8
0
  5
72
  0
POLYLINE
  8
GRID_MINOR
  6
CONTINUOUS
 62
     8
  5
73
 66
     1
 10
0.0
 20
0.0
 30
0.0
1001
VDEXTRAPARAM
1071
        0
1071
        0
1071
        0
1040
1.0
1000

1000

1001
VD_XPROPERTIES
  0
VERTEX
  8
GRID_MINOR
  6
CONTINUOUS
 62
     8
  5
74
 10
0.1
 20
0.0
 30
0.0
  0
VERTEX
  8
GRID_MINOR
  6
CONTINUOUS
 62
     8
  5
75
 10
0.1
 20
9.0
 30
0.0
  0
SEQEND
  8
0
  5
76
  0
POLYLINE
  8
GRID_MINOR
  6
CONTINUOUS
 62
     8
  5
77
 66
     1
 10
0.0
 20
0.0
 30
0.0
1001
VDEXTRAPARAM
1071
        0
1071
        0
1071
        0
1040
1.0
1000

1000

1001
VD_XPROPERTIES
  0
VERTEX
  8
GRID_MINOR
  6
CONTINUOUS
 62
     8
  5
78
 10
0.2
 20
0.0
 30
0.0
  0
VERTEX
  8
GRID_MINOR
  6
CONTINUOUS
 62
     8
  5
79
 10
0.2
 20
9.0
 30
0.0
  0
SEQEND
  8
0
  5
7A
  0
POLYLINE
  8
GRID_MINOR
  6
CONTINUOUS
 62
     8
  5
7B
 66
     1
 10
0.0
 20
0.0
 30
0.0
1001
VDEXTRAPARAM
1071
        0
1071
        0
1071
        0
1040
1.0
1000

1000

1001
VD_XPROPERTIES
  0
VERTEX
  8
GRID_MINOR
  6
CONTINUOUS
 62
     8
  5
7C
 10
0.3
 20
0.0
 30
0.0
  0
VERTEX
  8
GRID_MINOR
  6
CONTINUOUS
 62
     8
  5
7D
 10
0.3
 20
9.0
 30
0.0
  0
SEQEND
  8
0
  5
7E
  0
POLYLINE
  8
GRID_MINOR
  6
CONTINUOUS
 62
     8
  5
7F
 66
     1
 10
0.0
 20
0.0
 30
0.0
1001
VDEXTRAPARAM
1071
        0
1071
        0
1071
        0
1040
1.0
1000

1000

1001
VD_XPROPERTIES
  0
VERTEX
  8
GRID_MINOR
  6
CONTINUOUS
 62
     8
  5
80
 10
0.4
 20
0.0
 30
0.0
  0
VERTEX
  8
GRID_MINOR
  6
CONTINUOUS
 62
     8
  5
81
 10
0.4
 20
9.0
 30
0.0
  0
SEQEND
  8
0
  5
82
  0
POLYLINE
  8
GRID_MINOR
  6
CONTINUOUS
 62
     8
  5
83
 66
     1
 10
0.0
 20
0.0
 30
0.0
1001
VDEXTRAPARAM
1071
        0
1071
        0
1071
        0
1040
1.0
1000

1000

1001
VD_XPROPERTIES
  0
VERTEX
  8
GRID_MINOR
  6
CONTINUOUS
 62
     8
  5
84
 10
0.5
 20
0.0
 30
0.0
  0
VERTEX
  8
GRID_MINOR
  6
CONTINUOUS
 62
     8
  5
85
 10
0.5
 20
9.0
 30
0.0
  0
SEQEND
  8
0
  5
86
  0
POLYLINE
  8
GRID_MINOR
  6
CONTINUOUS
 62
     8
  5
87
 66
     1
 10
0.0
 20
0.0
 30
0.0
1001
VDEXTRAPARAM
1071
        0
1071
        0
1071
        0
1040
1.0
1000

1000

1001
VD_XPROPERTIES
  0
VERTEX
  8
GRID_MINOR
  6
CONTINUOUS
 62
     8
  5
88
 10
0.6
 20
0.0
 30
0.0
  0
VERTEX
  8
GRID_MINOR
  6
CONTINUOUS
 62
     8
  5
89
 10
0.6
 20
9.0
 30
0.0
  0
SEQEND
  8
0
  5
8A
  0
POLYLINE
  8
GRID_MINOR
  6
CONTINUOUS
 62
     8
  5
8B
 66
     1
 10
0.0
 20
0.0
 30
0.0
1001
VDEXTRAPARAM
1071
        0
1071
        0
1071
        0
1040
1.0
1000

1000

1001
VD_XPROPERTIES
  0
VERTEX
  8
GRID_MINOR
  6
CONTINUOUS
 62
     8
  5
8C
 10
0.7
 20
0.0
 30
0.0
  0
VERTEX
  8
GRID_MINOR
  6
CONTINUOUS
 62
     8
  5
8D
 10
0.7
 20
9.0
 30
0.0
  0
SEQEND
  8
0
  5
8E
  0
POLYLINE
  8
GRID_MINOR
  6
CONTINUOUS
 62
     8
  5
8F
 66
     1
 10
0.0
 20
0.0
 30
0.0
1001
VDEXTRAPARAM
1071
        0
1071
        0
1071
        0
1040
1.0
1000

1000

1001
VD_XPROPERTIES
  0
VERTEX
  8
GRID_MINOR
  6
CONTINUOUS
 62
     8
  5
90
 10
0.8
 20
0.0
 30
0.0
  0
VERTEX
  8
GRID_MINOR
  6
CONTINUOUS
 62
     8
  5
91
 10
0.8
 20
9.0
 30
0.0
  0
SEQEND
  8
0
  5
92
  0
POLYLINE
  8
GRID_MINOR
  6
CONTINUOUS
 62
     8
  5
93
 66
     1
 10
0.0
 20
0.0
 30
0.0
1001
VDEXTRAPARAM
1071
        0
1071
        0
1071
        0
1040
1.0
1000

1000

1001
VD_XPROPERTIES
  0
VERTEX
  8
GRID_MINOR
  6
CONTINUOUS
 62
     8
  5
94
 10
0.9
 20
0.0
 30
0.0
  0
VERTEX
  8
GRID_MINOR
  6
CONTINUOUS
 62
     8
  5
95
 10
0.9
 20
9.0
 30
0.0
  0
SEQEND
  8
0
  5
96
  0
POLYLINE
  8
GRID_MINOR
  6
CONTINUOUS
 62
     8
  5
97
 66
     1
 10
0.0
 20
0.0
 30
0.0
1001
VDEXTRAPARAM
1071
        0
1071
        0
1071
        0
1040
1.0
1000

1000

1001
VD_XPROPERTIES
  0
VERTEX
  8
GRID_MINOR
  6
CONTINUOUS
 62
     8
  5
98
 10
1.1
 20
0.0
 30
0.0
  0
VERTEX
  8
GRID_MINOR
  6
CONTINUOUS
 62
     8
  5
99
 10
1.1
 20
9.0
 30
0.0
  0
SEQEND
  8
0
  5
9A
  0
POLYLINE
  8
GRID_MINOR
  6
CONTINUOUS
 62
     8
  5
9B
 66
     1
 10
0.0
 20
0.0
 30
0.0
1001
VDEXTRAPARAM
1071
        0
1071
        0
1071
        0
1040
1.0
1000

1000

1001
VD_XPROPERTIES
  0
VERTEX
  8
GRID_MINOR
  6
CONTINUOUS
 62
     8
  5
9C
 10
1.2
 20
0.0
 30
0.0
  0
VERTEX
  8
GRID_MINOR
  6
CONTINUOUS
 62
     8
  5
9D
 10
1.2
 20
9.0
 30
0.0
  0
SEQEND
  8
0
  5
9E
  0
POLYLINE
  8
GRID_MINOR
  6
CONTINUOUS
 62
     8
  5
9F
 66
     1
 10
0.0
 20
0.0
 30
0.0
1001
VDEXTRAPARAM
1071
        0
1071
        0
1071
        0
1040
1.0
1000

1000

1001
VD_XPROPERTIES
  0
VERTEX
  8
GRID_MINOR
  6
CONTINUOUS
 62
     8
  5
A0
 10
1.3
 20
0.0
 30
0.0
  0
VERTEX
  8
GRID_MINOR
  6
CONTINUOUS
 62
     8
  5
A1
 10
1.3
 20
9.0
 30
0.0
  0
SEQEND
  8
0
  5
A2
  0
POLYLINE
  8
GRID_MINOR
  6
CONTINUOUS
 62
     8
  5
A3
 66
     1
 10
0.0
 20
0.0
 30
0.0
1001
VDEXTRAPARAM
1071
        0
1071
        0
1071
        0
1040
1.0
1000

1000

1001
VD_XPROPERTIES
  0
VERTEX
  8
GRID_MINOR
  6
CONTINUOUS
 62
     8
  5
A4
 10
1.4
 20
0.0
 30
0.0
  0
VERTEX
  8
GRID_MINOR
  6
CONTINUOUS
 62
     8
  5
A5
 10
1.4
 20
9.0
 30
0.0
  0
SEQEND
  8
0
  5
A6
  0
POLYLINE
  8
GRID_MINOR
  6
CONTINUOUS
 62
     8
  5
A7
 66
     1
 10
0.0
 20
0.0
 30
0.0
1001
VDEXTRAPARAM
1071
        0
1071
        0
1071
        0
1040
1.0
1000

1000

1001
VD_XPROPERTIES
  0
VERTEX
  8
GRID_MINOR
  6
CONTINUOUS
 62
     8
  5
A8
 10
1.5
 20
0.0
 30
0.0
  0
VERTEX
  8
GRID_MINOR
  6
CONTINUOUS
 62
     8
  5
A9
 10
1.5
 20
9.0
 30
0.0
  0
SEQEND
  8
0
  5
AA
  0
POLYLINE
  8
GRID_MINOR
  6
CONTINUOUS
 62
     8
  5
AB
 66
     1
 10
0.0
 20
0.0
 30
0.0
1001
VDEXTRAPARAM
1071
        0
1071
        0
1071
        0
1040
1.0
1000

1000

1001
VD_XPROPERTIES
  0
VERTEX
  8
GRID_MINOR
  6
CONTINUOUS
 62
     8
  5
AC
 10
1.6
 20
0.0
 30
0.0
  0
VERTEX
  8
GRID_MINOR
  6
CONTINUOUS
 62
     8
  5
AD
 10
1.6
 20
9.0
 30
0.0
  0
SEQEND
  8
0
  5
AE
  0
POLYLINE
  8
GRID_MINOR
  6
CONTINUOUS
 62
     8
  5
AF
 66
     1
 10
0.0
 20
0.0
 30
0.0
1001
VDEXTRAPARAM
1071
        0
1071
        0
1071
        0
1040
1.0
1000

1000

1001
VD_XPROPERTIES
  0
VERTEX
  8
GRID_MINOR
  6
CONTINUOUS
 62
     8
  5
B0
 10
1.7
 20
0.0
 30
0.0
  0
VERTEX
  8
GRID_MINOR
  6
CONTINUOUS
 62
     8
  5
B1
 10
1.7
 20
9.0
 30
0.0
  0
SEQEND
  8
0
  5
B2
  0
POLYLINE
  8
GRID_MINOR
  6
CONTINUOUS
 62
     8
  5
B3
 66
     1
 10
0.0
 20
0.0
 30
0.0
1001
VDEXTRAPARAM
1071
        0
1071
        0
1071
        0
1040
1.0
1000

1000

1001
VD_XPROPERTIES
  0
VERTEX
  8
GRID_MINOR
  6
CONTINUOUS
 62
     8
  5
B4
 10
1.8
 20
0.0
 30
0.0
  0
VERTEX
  8
GRID_MINOR
  6
CONTINUOUS
 62
     8
  5
B5
 10
1.8
 20
9.0
 30
0.0
  0
SEQEND
  8
0
  5
B6
  0
POLYLINE
  8
GRID_MINOR
  6
CONTINUOUS
 62
     8
  5
B7
 66
     1
 10
0.0
 20
0.0
 30
0.0
1001
VDEXTRAPARAM
1071
        0
1071
        0
1071
        0
1040
1.0
1000

1000

1001
VD_XPROPERTIES
  0
VERTEX
  8
GRID_MINOR
  6
CONTINUOUS
 62
     8
  5
B8
 10
1.9
 20
0.0
 30
0.0
  0
VERTEX
  8
GRID_MINOR
  6
CONTINUOUS
 62
     8
  5
B9
 10
1.9
 20
9.0
 30
0.0
  0
SEQEND
  8
0
  5
BA
  0
POLYLINE
  8
GRID_MINOR
  6
CONTINUOUS
 62
     8
  5
BB
 66
     1
 10
0.0
 20
0.0
 30
0.0
1001
VDEXTRAPARAM
1071
        0
1071
        0
1071
        0
1040
1.0
1000

1000

1001
VD_XPROPERTIES
  0
VERTEX
  8
GRID_MINOR
  6
CONTINUOUS
 62
     8
  5
BC
 10
2.1
 20
0.0
 30
0.0
  0
VERTEX
  8
GRID_MINOR
  6
CONTINUOUS
 62
     8
  5
BD
 10
2.1
 20
9.0
 30
0.0
  0
SEQEND
  8
0
  5
BE
  0
POLYLINE
  8
GRID_MINOR
  6
CONTINUOUS
 62
     8
  5
BF
 66
     1
 10
0.0
 20
0.0
 30
0.0
1001
VDEXTRAPARAM
1071
        0
1071
        0
1071
        0
1040
1.0
1000

1000

1001
VD_XPROPERTIES
  0
VERTEX
  8
GRID_MINOR
  6
CONTINUOUS
 62
     8
  5
C0
 10
2.2
 20
0.0
 30
0.0
  0
VERTEX
  8
GRID_MINOR
  6
CONTINUOUS
 62
     8
  5
C1
 10
2.2
 20
9.0
 30
0.0
  0
SEQEND
  8
0
  5
C2
  0
POLYLINE
  8
GRID_MAJOR
  5
C3
 66
     1
 10
0.0
 20
0.0
 30
0.0
1001
VDEXTRAPARAM
1071
        0
1071
        0
1071
        0
1040
1.0
1000

1000

1001
VD_XPROPERTIES
  0
VERTEX
  8
GRID_MAJOR
  5
C4
 10
6.0
 20
0.0
 30
0.0
  0
VERTEX
  8
GRID_MAJOR
  5
C5
 10
6.0
 20
9.0
 30
0.0
  0
SEQEND
  8
0
  5
C6
  0
POLYLINE
  8
GRID_MAJOR
  5
C7
 66
     1
 10
0.0
 20
0.0
 30
0.0
1001
VDEXTRAPARAM
1071
        0
1071
        0
1071
        0
1040
1.0
1000

1000

1001
VD_XPROPERTIES
  0
VERTEX
  8
GRID_MAJOR
  5
C8
 10
5.0
 20
0.0
 30
0.0
  0
VERTEX
  8
GRID_MAJOR
  5
C9
 10
5.0
 20
9.0
 30
0.0
  0
SEQEND
  8
0
  5
CA
  0
POLYLINE
  8
GRID_MAJOR
  5
CB
 66
     1
 10
0.0
 20
0.0
 30
0.0
1001
VDEXTRAPARAM
1071
        0
1071
        0
1071
        0
1040
1.0
1000

1000

1001
VD_XPROPERTIES
  0
VERTEX
  8
GRID_MAJOR
  5
CC
 10
4.0
 20
0.0
 30
0.0
  0
VERTEX
  8
GRID_MAJOR
  5
CD
 10
4.0
 20
9.0
 30
0.0
  0
SEQEND
  8
0
  5
CE
  0
POLYLINE
  8
GRID_MAJOR
  5
CF
 66
     1
 10
0.0
 20
0.0
 30
0.0
1001
VDEXTRAPARAM
1071
        0
1071
        0
1071
        0
1040
1.0
1000

1000

1001
VD_XPROPERTIES
  0
VERTEX
  8
GRID_MAJOR
  5
D0
 10
3.0
 20
0.0
 30
0.0
  0
VERTEX
  8
GRID_MAJOR
  5
D1
 10
3.0
 20
9.0
 30
0.0
  0
SEQEND
  8
0
  5
D2
  0
POLYLINE
  8
GRID_MINOR
  6
CONTINUOUS
 62
     8
  5
D3
 66
     1
 10
0.0
 20
0.0
 30
0.0
1001
VDEXTRAPARAM
1071
        0
1071
        0
1071
        0
1040
1.0
1000

1000

1001
VD_XPROPERTIES
  0
VERTEX
  8
GRID_MINOR
  6
CONTINUOUS
 62
     8
  5
D4
 10
2.3
 20
0.0
 30
0.0
  0
VERTEX
  8
GRID_MINOR
  6
CONTINUOUS
 62
     8
  5
D5
 10
2.3
 20
9.0
 30
0.0
  0
SEQEND
  8
0
  5
D6
  0
POLYLINE
  8
GRID_MINOR
  6
CONTINUOUS
 62
     8
  5
D7
 66
     1
 10
0.0
 20
0.0
 30
0.0
1001
VDEXTRAPARAM
1071
        0
1071
        0
1071
        0
1040
1.0
1000

1000

1001
VD_XPROPERTIES
  0
VERTEX
  8
GRID_MINOR
  6
CONTINUOUS
 62
     8
  5
D8
 10
2.4
 20
0.0
 30
0.0
  0
VERTEX
  8
GRID_MINOR
  6
CONTINUOUS
 62
     8
  5
D9
 10
2.4
 20
9.0
 30
0.0
  0
SEQEND
  8
0
  5
DA
  0
POLYLINE
  8
GRID_MINOR
  6
CONTINUOUS
 62
     8
  5
DB
 66
     1
 10
0.0
 20
0.0
 30
0.0
1001
VDEXTRAPARAM
1071
        0
1071
        0
1071
        0
1040
1.0
1000

1000

1001
VD_XPROPERTIES
  0
VERTEX
  8
GRID_MINOR
  6
CONTINUOUS
 62
     8
  5
DC
 10
2.5
 20
0.0
 30
0.0
  0
VERTEX
  8
GRID_MINOR
  6
CONTINUOUS
 62
     8
  5
DD
 10
2.5
 20
9.0
 30
0.0
  0
SEQEND
  8
0
  5
DE
  0
POLYLINE
  8
GRID_MINOR
  6
CONTINUOUS
 62
     8
  5
DF
 66
     1
 10
0.0
 20
0.0
 30
0.0
1001
VDEXTRAPARAM
1071
        0
1071
        0
1071
        0
1040
1.0
1000

1000

1001
VD_XPROPERTIES
  0
VERTEX
  8
GRID_MINOR
  6
CONTINUOUS
 62
     8
  5
E0
 10
2.6
 20
0.0
 30
0.0
  0
VERTEX
  8
GRID_MINOR
  6
CONTINUOUS
 62
     8
  5
E1
 10
2.6
 20
9.0
 30
0.0
  0
SEQEND
  8
0
  5
E2
  0
POLYLINE
  8
GRID_MINOR
  6
CONTINUOUS
 62
     8
  5
E3
 66
     1
 10
0.0
 20
0.0
 30
0.0
1001
VDEXTRAPARAM
1071
        0
1071
        0
1071
        0
1040
1.0
1000

1000

1001
VD_XPROPERTIES
  0
VERTEX
  8
GRID_MINOR
  6
CONTINUOUS
 62
     8
  5
E4
 10
2.7
 20
0.0
 30
0.0
  0
VERTEX
  8
GRID_MINOR
  6
CONTINUOUS
 62
     8
  5
E5
 10
2.7
 20
9.0
 30
0.0
  0
SEQEND
  8
0
  5
E6
  0
POLYLINE
  8
GRID_MINOR
  6
CONTINUOUS
 62
     8
  5
E7
 66
     1
 10
0.0
 20
0.0
 30
0.0
1001
VDEXTRAPARAM
1071
        0
1071
        0
1071
        0
1040
1.0
1000

1000

1001
VD_XPROPERTIES
  0
VERTEX
  8
GRID_MINOR
  6
CONTINUOUS
 62
     8
  5
E8
 10
2.8
 20
0.0
 30
0.0
  0
VERTEX
  8
GRID_MINOR
  6
CONTINUOUS
 62
     8
  5
E9
 10
2.8
 20
9.0
 30
0.0
  0
SEQEND
  8
0
  5
EA
  0
POLYLINE
  8
GRID_MINOR
  6
CONTINUOUS
 62
     8
  5
EB
 66
     1
 10
0.0
 20
0.0
 30
0.0
1001
VDEXTRAPARAM
1071
        0
1071
        0
1071
        0
1040
1.0
1000

1000

1001
VD_XPROPERTIES
  0
VERTEX
  8
GRID_MINOR
  6
CONTINUOUS
 62
     8
  5
EC
 10
2.9
 20
0.0
 30
0.0
  0
VERTEX
  8
GRID_MINOR
  6
CONTINUOUS
 62
     8
  5
ED
 10
2.9
 20
9.0
 30
0.0
  0
SEQEND
  8
0
  5
EE
  0
POLYLINE
  8
GRID_MINOR
  6
CONTINUOUS
 62
     8
  5
EF
 66
     1
 10
0.0
 20
0.0
 30
0.0
1001
VDEXTRAPARAM
1071
        0
1071
        0
1071
        0
1040
1.0
1000

1000

1001
VD_XPROPERTIES
  0
VERTEX
  8
GRID_MINOR
  6
CONTINUOUS
 62
     8
  5
F0
 10
3.1
 20
0.0
 30
0.0
  0
VERTEX
  8
GRID_MINOR
  6
CONTINUOUS
 62
     8
  5
F1
 10
3.1
 20
9.0
 30
0.0
  0
SEQEND
  8
0
  5
F2
  0
POLYLINE
  8
GRID_MINOR
  6
CONTINUOUS
 62
     8
  5
F3
 66
     1
 10
0.0
 20
0.0
 30
0.0
1001
VDEXTRAPARAM
1071
        0
1071
        0
1071
        0
1040
1.0
1000

1000

1001
VD_XPROPERTIES
  0
VERTEX
  8
GRID_MINOR
  6
CONTINUOUS
 62
     8
  5
F4
 10
3.2
 20
0.0
 30
0.0
  0
VERTEX
  8
GRID_MINOR
  6
CONTINUOUS
 62
     8
  5
F5
 10
3.2
 20
9.0
 30
0.0
  0
SEQEND
  8
0
  5
F6
  0
POLYLINE
  8
GRID_MINOR
  6
CONTINUOUS
 62
     8
  5
F7
 66
     1
 10
0.0
 20
0.0
 30
0.0
1001
VDEXTRAPARAM
1071
        0
1071
        0
1071
        0
1040
1.0
1000

1000

1001
VD_XPROPERTIES
  0
VERTEX
  8
GRID_MINOR
  6
CONTINUOUS
 62
     8
  5
F8
 10
3.3
 20
0.0
 30
0.0
  0
VERTEX
  8
GRID_MINOR
  6
CONTINUOUS
 62
     8
  5
F9
 10
3.3
 20
9.0
 30
0.0
  0
SEQEND
  8
0
  5
FA
  0
POLYLINE
  8
GRID_MINOR
  6
CONTINUOUS
 62
     8
  5
FB
 66
     1
 10
0.0
 20
0.0
 30
0.0
1001
VDEXTRAPARAM
1071
        0
1071
        0
1071
        0
1040
1.0
1000

1000

1001
VD_XPROPERTIES
  0
VERTEX
  8
GRID_MINOR
  6
CONTINUOUS
 62
     8
  5
FC
 10
3.4
 20
0.0
 30
0.0
  0
VERTEX
  8
GRID_MINOR
  6
CONTINUOUS
 62
     8
  5
FD
 10
3.4
 20
9.0
 30
0.0
  0
SEQEND
  8
0
  5
FE
  0
POLYLINE
  8
GRID_MINOR
  6
CONTINUOUS
 62
     8
  5
FF
 66
     1
 10
0.0
 20
0.0
 30
0.0
1001
VDEXTRAPARAM
1071
        0
1071
        0
1071
        0
1040
1.0
1000

1000

1001
VD_XPROPERTIES
  0
VERTEX
  8
GRID_MINOR
  6
CONTINUOUS
 62
     8
  5
100
 10
3.5
 20
0.0
 30
0.0
  0
VERTEX
  8
GRID_MINOR
  6
CONTINUOUS
 62
     8
  5
101
 10
3.5
 20
9.0
 30
0.0
  0
SEQEND
  8
0
  5
102
  0
POLYLINE
  8
GRID_MINOR
  6
CONTINUOUS
 62
     8
  5
103
 66
     1
 10
0.0
 20
0.0
 30
0.0
1001
VDEXTRAPARAM
1071
        0
1071
        0
1071
        0
1040
1.0
1000

1000

1001
VD_XPROPERTIES
  0
VERTEX
  8
GRID_MINOR
  6
CONTINUOUS
 62
     8
  5
104
 10
3.6
 20
0.0
 30
0.0
  0
VERTEX
  8
GRID_MINOR
  6
CONTINUOUS
 62
     8
  5
105
 10
3.6
 20
9.0
 30
0.0
  0
SEQEND
  8
0
  5
106
  0
POLYLINE
  8
GRID_MINOR
  6
CONTINUOUS
 62
     8
  5
107
 66
     1
 10
0.0
 20
0.0
 30
0.0
1001
VDEXTRAPARAM
1071
        0
1071
        0
1071
        0
1040
1.0
1000

1000

1001
VD_XPROPERTIES
  0
VERTEX
  8
GRID_MINOR
  6
CONTINUOUS
 62
     8
  5
108
 10
3.7
 20
0.0
 30
0.0
  0
VERTEX
  8
GRID_MINOR
  6
CONTINUOUS
 62
     8
  5
109
 10
3.7
 20
9.0
 30
0.0
  0
SEQEND
  8
0
  5
10A
  0
POLYLINE
  8
GRID_MINOR
  6
CONTINUOUS
 62
     8
  5
10B
 66
     1
 10
0.0
 20
0.0
 30
0.0
1001
VDEXTRAPARAM
1071
        0
1071
        0
1071
        0
1040
1.0
1000

1000

1001
VD_XPROPERTIES
  0
VERTEX
  8
GRID_MINOR
  6
CONTINUOUS
 62
     8
  5
10C
 10
3.8
 20
0.0
 30
0.0
  0
VERTEX
  8
GRID_MINOR
  6
CONTINUOUS
 62
     8
  5
10D
 10
3.8
 20
9.0
 30
0.0
  0
SEQEND
  8
0
  5
10E
  0
POLYLINE
  8
GRID_MINOR
  6
CONTINUOUS
 62
     8
  5
10F
 66
     1
 10
0.0
 20
0.0
 30
0.0
1001
VDEXTRAPARAM
1071
        0
1071
        0
1071
        0
1040
1.0
1000

1000

1001
VD_XPROPERTIES
  0
VERTEX
  8
GRID_MINOR
  6
CONTINUOUS
 62
     8
  5
110
 10
3.9
 20
0.0
 30
0.0
  0
VERTEX
  8
GRID_MINOR
  6
CONTINUOUS
 62
     8
  5
111
 10
3.9
 20
9.0
 30
0.0
  0
SEQEND
  8
0
  5
112
  0
POLYLINE
  8
GRID_MINOR
  6
CONTINUOUS
 62
     8
  5
113
 66
     1
 10
0.0
 20
0.0
 30
0.0
1001
VDEXTRAPARAM
1071
        0
1071
        0
1071
        0
1040
1.0
1000

1000

1001
VD_XPROPERTIES
  0
VERTEX
  8
GRID_MINOR
  6
CONTINUOUS
 62
     8
  5
114
 10
4.1
 20
0.0
 30
0.0
  0
VERTEX
  8
GRID_MINOR
  6
CONTINUOUS
 62
     8
  5
115
 10
4.1
 20
9.0
 30
0.0
  0
SEQEND
  8
0
  5
116
  0
POLYLINE
  8
GRID_MINOR
  6
CONTINUOUS
 62
     8
  5
117
 66
     1
 10
0.0
 20
0.0
 30
0.0
1001
VDEXTRAPARAM
1071
        0
1071
        0
1071
        0
1040
1.0
1000

1000

1001
VD_XPROPERTIES
  0
VERTEX
  8
GRID_MINOR
  6
CONTINUOUS
 62
     8
  5
118
 10
4.2
 20
0.0
 30
0.0
  0
VERTEX
  8
GRID_MINOR
  6
CONTINUOUS
 62
     8
  5
119
 10
4.2
 20
9.0
 30
0.0
  0
SEQEND
  8
0
  5
11A
  0
POLYLINE
  8
GRID_MINOR
  6
CONTINUOUS
 62
     8
  5
11B
 66
     1
 10
0.0
 20
0.0
 30
0.0
1001
VDEXTRAPARAM
1071
        0
1071
        0
1071
        0
1040
1.0
1000

1000

1001
VD_XPROPERTIES
  0
VERTEX
  8
GRID_MINOR
  6
CONTINUOUS
 62
     8
  5
11C
 10
4.3
 20
0.0
 30
0.0
  0
VERTEX
  8
GRID_MINOR
  6
CONTINUOUS
 62
     8
  5
11D
 10
4.3
 20
9.0
 30
0.0
  0
SEQEND
  8
0
  5
11E
  0
POLYLINE
  8
GRID_MINOR
  6
CONTINUOUS
 62
     8
  5
11F
 66
     1
 10
0.0
 20
0.0
 30
0.0
1001
VDEXTRAPARAM
1071
        0
1071
        0
1071
        0
1040
1.0
1000

1000

1001
VD_XPROPERTIES
  0
VERTEX
  8
GRID_MINOR
  6
CONTINUOUS
 62
     8
  5
120
 10
4.4
 20
0.0
 30
0.0
  0
VERTEX
  8
GRID_MINOR
  6
CONTINUOUS
 62
     8
  5
121
 10
4.4
 20
9.0
 30
0.0
  0
SEQEND
  8
0
  5
122
  0
POLYLINE
  8
GRID_MINOR
  6
CONTINUOUS
 62
     8
  5
123
 66
     1
 10
0.0
 20
0.0
 30
0.0
1001
VDEXTRAPARAM
1071
        0
1071
        0
1071
        0
1040
1.0
1000

1000

1001
VD_XPROPERTIES
  0
VERTEX
  8
GRID_MINOR
  6
CONTINUOUS
 62
     8
  5
124
 10
4.5
 20
0.0
 30
0.0
  0
VERTEX
  8
GRID_MINOR
  6
CONTINUOUS
 62
     8
  5
125
 10
4.5
 20
9.0
 30
0.0
  0
SEQEND
  8
0
  5
126
  0
POLYLINE
  8
GRID_MINOR
  6
CONTINUOUS
 62
     8
  5
127
 66
     1
 10
0.0
 20
0.0
 30
0.0
1001
VDEXTRAPARAM
1071
        0
1071
        0
1071
        0
1040
1.0
1000

1000

1001
VD_XPROPERTIES
  0
VERTEX
  8
GRID_MINOR
  6
CONTINUOUS
 62
     8
  5
128
 10
4.6
 20
0.0
 30
0.0
  0
VERTEX
  8
GRID_MINOR
  6
CONTINUOUS
 62
     8
  5
129
 10
4.6
 20
9.0
 30
0.0
  0
SEQEND
  8
0
  5
12A
  0
POLYLINE
  8
GRID_MINOR
  6
CONTINUOUS
 62
     8
  5
12B
 66
     1
 10
0.0
 20
0.0
 30
0.0
1001
VDEXTRAPARAM
1071
        0
1071
        0
1071
        0
1040
1.0
1000

1000

1001
VD_XPROPERTIES
  0
VERTEX
  8
GRID_MINOR
  6
CONTINUOUS
 62
     8
  5
12C
 10
4.7
 20
0.0
 30
0.0
  0
VERTEX
  8
GRID_MINOR
  6
CONTINUOUS
 62
     8
  5
12D
 10
4.7
 20
9.0
 30
0.0
  0
SEQEND
  8
0
  5
12E
  0
POLYLINE
  8
GRID_MINOR
  6
CONTINUOUS
 62
     8
  5
12F
 66
     1
 10
0.0
 20
0.0
 30
0.0
1001
VDEXTRAPARAM
1071
        0
1071
        0
1071
        0
1040
1.0
1000

1000

1001
VD_XPROPERTIES
  0
VERTEX
  8
GRID_MINOR
  6
CONTINUOUS
 62
     8
  5
130
 10
4.8
 20
0.0
 30
0.0
  0
VERTEX
  8
GRID_MINOR
  6
CONTINUOUS
 62
     8
  5
131
 10
4.8
 20
9.0
 30
0.0
  0
SEQEND
  8
0
  5
132
  0
POLYLINE
  8
GRID_MINOR
  6
CONTINUOUS
 62
     8
  5
133
 66
     1
 10
0.0
 20
0.0
 30
0.0
1001
VDEXTRAPARAM
1071
        0
1071
        0
1071
        0
1040
1.0
1000

1000

1001
VD_XPROPERTIES
  0
VERTEX
  8
GRID_MINOR
  6
CONTINUOUS
 62
     8
  5
134
 10
4.9
 20
0.0
 30
0.0
  0
VERTEX
  8
GRID_MINOR
  6
CONTINUOUS
 62
     8
  5
135
 10
4.9
 20
9.0
 30
0.0
  0
SEQEND
  8
0
  5
136
  0
POLYLINE
  8
GRID_MINOR
  6
CONTINUOUS
 62
     8
  5
137
 66
     1
 10
0.0
 20
0.0
 30
0.0
1001
VDEXTRAPARAM
1071
        0
1071
        0
1071
        0
1040
1.0
1000

1000

1001
VD_XPROPERTIES
  0
VERTEX
  8
GRID_MINOR
  6
CONTINUOUS
 62
     8
  5
138
 10
5.1
 20
0.0
 30
0.0
  0
VERTEX
  8
GRID_MINOR
  6
CONTINUOUS
 62
     8
  5
139
 10
5.1
 20
9.0
 30
0.0
  0
SEQEND
  8
0
  5
13A
  0
POLYLINE
  8
GRID_MINOR
  6
CONTINUOUS
 62
     8
  5
13B
 66
     1
 10
0.0
 20
0.0
 30
0.0
1001
VDEXTRAPARAM
1071
        0
1071
        0
1071
        0
1040
1.0
1000

1000

1001
VD_XPROPERTIES
  0
VERTEX
  8
GRID_MINOR
  6
CONTINUOUS
 62
     8
  5
13C
 10
5.2
 20
0.0
 30
0.0
  0
VERTEX
  8
GRID_MINOR
  6
CONTINUOUS
 62
     8
  5
13D
 10
5.2
 20
9.0
 30
0.0
  0
SEQEND
  8
0
  5
13E
  0
POLYLINE
  8
GRID_MINOR
  6
CONTINUOUS
 62
     8
  5
13F
 66
     1
 10
0.0
 20
0.0
 30
0.0
1001
VDEXTRAPARAM
1071
        0
1071
        0
1071
        0
1040
1.0
1000

1000

1001
VD_XPROPERTIES
  0
VERTEX
  8
GRID_MINOR
  6
CONTINUOUS
 62
     8
  5
140
 10
5.3
 20
0.0
 30
0.0
  0
VERTEX
  8
GRID_MINOR
  6
CONTINUOUS
 62
     8
  5
141
 10
5.3
 20
9.0
 30
0.0
  0
SEQEND
  8
0
  5
142
  0
POLYLINE
  8
GRID_MINOR
  6
CONTINUOUS
 62
     8
  5
143
 66
     1
 10
0.0
 20
0.0
 30
0.0
1001
VDEXTRAPARAM
1071
        0
1071
        0
1071
        0
1040
1.0
1000

1000

1001
VD_XPROPERTIES
  0
VERTEX
  8
GRID_MINOR
  6
CONTINUOUS
 62
     8
  5
144
 10
5.4
 20
0.0
 30
0.0
  0
VERTEX
  8
GRID_MINOR
  6
CONTINUOUS
 62
     8
  5
145
 10
5.4
 20
9.0
 30
0.0
  0
SEQEND
  8
0
  5
146
  0
POLYLINE
  8
GRID_MINOR
  6
CONTINUOUS
 62
     8
  5
147
 66
     1
 10
0.0
 20
0.0
 30
0.0
1001
VDEXTRAPARAM
1071
        0
1071
        0
1071
        0
1040
1.0
1000

1000

1001
VD_XPROPERTIES
  0
VERTEX
  8
GRID_MINOR
  6
CONTINUOUS
 62
     8
  5
148
 10
5.5
 20
0.0
 30
0.0
  0
VERTEX
  8
GRID_MINOR
  6
CONTINUOUS
 62
     8
  5
149
 10
5.5
 20
9.0
 30
0.0
  0
SEQEND
  8
0
  5
14A
  0
POLYLINE
  8
GRID_MINOR
  6
CONTINUOUS
 62
     8
  5
14B
 66
     1
 10
0.0
 20
0.0
 30
0.0
1001
VDEXTRAPARAM
1071
        0
1071
        0
1071
        0
1040
1.0
1000

1000

1001
VD_XPROPERTIES
  0
VERTEX
  8
GRID_MINOR
  6
CONTINUOUS
 62
     8
  5
14C
 10
5.6
 20
0.0
 30
0.0
  0
VERTEX
  8
GRID_MINOR
  6
CONTINUOUS
 62
     8
  5
14D
 10
5.6
 20
9.0
 30
0.0
  0
SEQEND
  8
0
  5
14E
  0
POLYLINE
  8
GRID_MINOR
  6
CONTINUOUS
 62
     8
  5
14F
 66
     1
 10
0.0
 20
0.0
 30
0.0
1001
VDEXTRAPARAM
1071
        0
1071
        0
1071
        0
1040
1.0
1000

1000

1001
VD_XPROPERTIES
  0
VERTEX
  8
GRID_MINOR
  6
CONTINUOUS
 62
     8
  5
150
 10
5.7
 20
0.0
 30
0.0
  0
VERTEX
  8
GRID_MINOR
  6
CONTINUOUS
 62
     8
  5
151
 10
5.7
 20
9.0
 30
0.0
  0
SEQEND
  8
0
  5
152
  0
POLYLINE
  8
GRID_MINOR
  6
CONTINUOUS
 62
     8
  5
153
 66
     1
 10
0.0
 20
0.0
 30
0.0
1001
VDEXTRAPARAM
1071
        0
1071
        0
1071
        0
1040
1.0
1000

1000

1001
VD_XPROPERTIES
  0
VERTEX
  8
GRID_MINOR
  6
CONTINUOUS
 62
     8
  5
154
 10
5.8
 20
0.0
 30
0.0
  0
VERTEX
  8
GRID_MINOR
  6
CONTINUOUS
 62
     8
  5
155
 10
5.8
 20
9.0
 30
0.0
  0
SEQEND
  8
0
  5
156
  0
POLYLINE
  8
GRID_MINOR
  6
CONTINUOUS
 62
     8
  5
157
 66
     1
 10
0.0
 20
0.0
 30
0.0
1001
VDEXTRAPARAM
1071
        0
1071
        0
1071
        0
1040
1.0
1000

1000

1001
VD_XPROPERTIES
  0
VERTEX
  8
GRID_MINOR
  6
CONTINUOUS
 62
     8
  5
158
 10
5.9
 20
0.0
 30
0.0
  0
VERTEX
  8
GRID_MINOR
  6
CONTINUOUS
 62
     8
  5
159
 10
5.9
 20
9.0
 30
0.0
  0
SEQEND
  8
0
  5
15A
  0
POLYLINE
  8
GRID_MINOR
  6
CONTINUOUS
 62
     8
  5
15B
 66
     1
 10
0.0
 20
0.0
 30
0.0
1001
VDEXTRAPARAM
1071
        0
1071
        0
1071
        0
1040
1.0
1000

1000

1001
VD_XPROPERTIES
  0
VERTEX
  8
GRID_MINOR
  6
CONTINUOUS
 62
     8
  5
15C
 10
6.1
 20
0.0
 30
0.0
  0
VERTEX
  8
GRID_MINOR
  6
CONTINUOUS
 62
     8
  5
15D
 10
6.1
 20
9.0
 30
0.0
  0
SEQEND
  8
0
  5
15E
  0
POLYLINE
  8
GRID_MINOR
  6
CONTINUOUS
 62
     8
  5
15F
 66
     1
 10
0.0
 20
0.0
 30
0.0
1001
VDEXTRAPARAM
1071
        0
1071
        0
1071
        0
1040
1.0
1000

1000

1001
VD_XPROPERTIES
  0
VERTEX
  8
GRID_MINOR
  6
CONTINUOUS
 62
     8
  5
160
 10
6.2
 20
0.0
 30
0.0
  0
VERTEX
  8
GRID_MINOR
  6
CONTINUOUS
 62
     8
  5
161
 10
6.2
 20
9.0
 30
0.0
  0
SEQEND
  8
0
  5
162
  0
POLYLINE
  8
GRID_MINOR
  6
CONTINUOUS
 62
     8
  5
163
 66
     1
 10
0.0
 20
0.0
 30
0.0
1001
VDEXTRAPARAM
1071
        0
1071
        0
1071
        0
1040
1.0
1000

1000

1001
VD_XPROPERTIES
  0
VERTEX
  8
GRID_MINOR
  6
CONTINUOUS
 62
     8
  5
164
 10
6.3
 20
0.0
 30
0.0
  0
VERTEX
  8
GRID_MINOR
  6
CONTINUOUS
 62
     8
  5
165
 10
6.3
 20
9.0
 30
0.0
  0
SEQEND
  8
0
  5
166
  0
POLYLINE
  8
GRID_MINOR
  6
CONTINUOUS
 62
     8
  5
167
 66
     1
 10
0.0
 20
0.0
 30
0.0
1001
VDEXTRAPARAM
1071
        0
1071
        0
1071
        0
1040
1.0
1000

1000

1001
VD_XPROPERTIES
  0
VERTEX
  8
GRID_MINOR
  6
CONTINUOUS
 62
     8
  5
168
 10
6.4
 20
0.0
 30
0.0
  0
VERTEX
  8
GRID_MINOR
  6
CONTINUOUS
 62
     8
  5
169
 10
6.4
 20
9.0
 30
0.0
  0
SEQEND
  8
0
  5
16A
  0
POLYLINE
  8
GRID_MINOR
  6
CONTINUOUS
 62
     8
  5
16B
 66
     1
 10
0.0
 20
0.0
 30
0.0
1001
VDEXTRAPARAM
1071
        0
1071
        0
1071
        0
1040
1.0
1000

1000

1001
VD_XPROPERTIES
  0
VERTEX
  8
GRID_MINOR
  6
CONTINUOUS
 62
     8
  5
16C
 10
6.5
 20
0.0
 30
0.0
  0
VERTEX
  8
GRID_MINOR
  6
CONTINUOUS
 62
     8
  5
16D
 10
6.5
 20
9.0
 30
0.0
  0
SEQEND
  8
0
  5
16E
  0
POLYLINE
  8
GRID_MINOR
  6
CONTINUOUS
 62
     8
  5
16F
 66
     1
 10
0.0
 20
0.0
 30
0.0
1001
VDEXTRAPARAM
1071
        0
1071
        0
1071
        0
1040
1.0
1000

1000

1001
VD_XPROPERTIES
  0
VERTEX
  8
GRID_MINOR
  6
CONTINUOUS
 62
     8
  5
170
 10
6.6
 20
0.0
 30
0.0
  0
VERTEX
  8
GRID_MINOR
  6
CONTINUOUS
 62
     8
  5
171
 10
6.6
 20
9.0
 30
0.0
  0
SEQEND
  8
0
  5
172
  0
POLYLINE
  8
GRID_MINOR
  6
CONTINUOUS
 62
     8
  5
173
 66
     1
 10
0.0
 20
0.0
 30
0.0
1001
VDEXTRAPARAM
1071
        0
1071
        0
1071
        0
1040
1.0
1000

1000

1001
VD_XPROPERTIES
  0
VERTEX
  8
GRID_MINOR
  6
CONTINUOUS
 62
     8
  5
174
 10
6.7
 20
0.0
 30
0.0
  0
VERTEX
  8
GRID_MINOR
  6
CONTINUOUS
 62
     8
  5
175
 10
6.7
 20
9.0
 30
0.0
  0
SEQEND
  8
0
  5
176
  0
POLYLINE
  8
GRID_MAJOR
  5
177
 66
     1
 10
0.0
 20
0.0
 30
0.0
1001
VDEXTRAPARAM
1071
        0
1071
        0
1071
        0
1040
1.0
1000

1000

1001
VD_XPROPERTIES
  0
VERTEX
  8
GRID_MAJOR
  5
178
 10
7.0
 20
0.0
 30
0.0
  0
VERTEX
  8
GRID_MAJOR
  5
179
 10
7.0
 20
9.0
 30
0.0
  0
SEQEND
  8
0
  5
17A
  0
POLYLINE
  8
GRID_MINOR
  6
CONTINUOUS
 62
     8
  5
17B
 66
     1
 10
0.0
 20
0.0
 30
0.0
1001
VDEXTRAPARAM
1071
        0
1071
        0
1071
        0
1040
1.0
1000

1000

1001
VD_XPROPERTIES
  0
VERTEX
  8
GRID_MINOR
  6
CONTINUOUS
 62
     8
  5
17C
 10
6.8
 20
0.0
 30
0.0
  0
VERTEX
  8
GRID_MINOR
  6
CONTINUOUS
 62
     8
  5
17D
 10
6.8
 20
9.0
 30
0.0
  0
SEQEND
  8
0
  5
17E
  0
POLYLINE
  8
GRID_MINOR
  6
CONTINUOUS
 62
     8
  5
17F
 66
     1
 10
0.0
 20
0.0
 30
0.0
1001
VDEXTRAPARAM
1071
        0
1071
        0
1071
        0
1040
1.0
1000

1000

1001
VD_XPROPERTIES
  0
VERTEX
  8
GRID_MINOR
  6
CONTINUOUS
 62
     8
  5
180
 10
6.9
 20
0.0
 30
0.0
  0
VERTEX
  8
GRID_MINOR
  6
CONTINUOUS
 62
     8
  5
181
 10
6.9
 20
9.0
 30
0.0
  0
SEQEND
  8
0
  5
182
  0
POLYLINE
  8
GRID_MINOR
  6
CONTINUOUS
 62
     8
  5
183
 66
     1
 10
0.0
 20
0.0
 30
0.0
1001
VDEXTRAPARAM
1071
        0
1071
        0
1071
        0
1040
1.0
1000

1000

1001
VD_XPROPERTIES
  0
VERTEX
  8
GRID_MINOR
  6
CONTINUOUS
 62
     8
  5
184
 10
7.1
 20
0.0
 30
0.0
  0
VERTEX
  8
GRID_MINOR
  6
CONTINUOUS
 62
     8
  5
185
 10
7.1
 20
9.0
 30
0.0
  0
SEQEND
  8
0
  5
186
  0
POLYLINE
  8
GRID_MINOR
  6
CONTINUOUS
 62
     8
  5
187
 66
     1
 10
0.0
 20
0.0
 30
0.0
1001
VDEXTRAPARAM
1071
        0
1071
        0
1071
        0
1040
1.0
1000

1000

1001
VD_XPROPERTIES
  0
VERTEX
  8
GRID_MINOR
  6
CONTINUOUS
 62
     8
  5
188
 10
7.2
 20
0.0
 30
0.0
  0
VERTEX
  8
GRID_MINOR
  6
CONTINUOUS
 62
     8
  5
189
 10
7.2
 20
9.0
 30
0.0
  0
SEQEND
  8
0
  5
18A
  0
POLYLINE
  8
GRID_MINOR
  6
CONTINUOUS
 62
     8
  5
18B
 66
     1
 10
0.0
 20
0.0
 30
0.0
1001
VDEXTRAPARAM
1071
        0
1071
        0
1071
        0
1040
1.0
1000

1000

1001
VD_XPROPERTIES
  0
VERTEX
  8
GRID_MINOR
  6
CONTINUOUS
 62
     8
  5
18C
 10
7.3
 20
0.0
 30
0.0
  0
VERTEX
  8
GRID_MINOR
  6
CONTINUOUS
 62
     8
  5
18D
 10
7.3
 20
9.0
 30
0.0
  0
SEQEND
  8
0
  5
18E
  0
POLYLINE
  8
GRID_MINOR
  6
CONTINUOUS
 62
     8
  5
18F
 66
     1
 10
0.0
 20
0.0
 30
0.0
1001
VDEXTRAPARAM
1071
        0
1071
        0
1071
        0
1040
1.0
1000

1000

1001
VD_XPROPERTIES
  0
VERTEX
  8
GRID_MINOR
  6
CONTINUOUS
 62
     8
  5
190
 10
7.4
 20
0.0
 30
0.0
  0
VERTEX
  8
GRID_MINOR
  6
CONTINUOUS
 62
     8
  5
191
 10
7.4
 20
9.0
 30
0.0
  0
SEQEND
  8
0
  5
192
  0
POLYLINE
  8
GRID_MINOR
  6
CONTINUOUS
 62
     8
  5
193
 66
     1
 10
0.0
 20
0.0
 30
0.0
1001
VDEXTRAPARAM
1071
        0
1071
        0
1071
        0
1040
1.0
1000

1000

1001
VD_XPROPERTIES
  0
VERTEX
  8
GRID_MINOR
  6
CONTINUOUS
 62
     8
  5
194
 10
7.5
 20
0.0
 30
0.0
  0
VERTEX
  8
GRID_MINOR
  6
CONTINUOUS
 62
     8
  5
195
 10
7.5
 20
9.0
 30
0.0
  0
SEQEND
  8
0
  5
196
  0
POLYLINE
  8
BORDERLINE
  5
197
 66
     1
 10
0.0
 20
0.0
 30
0.0
1001
VDEXTRAPARAM
1071
        0
1071
        0
1071
        0
1040
1.0
1000

1000

1001
VD_XPROPERTIES
  0
VERTEX
  8
BORDERLINE
  5
198
 10
13.5
 20
-0.75
 30
0.0
  0
VERTEX
  8
BORDERLINE
  5
199
 10
13.5
 20
9.25
 30
0.0
  0
SEQEND
  8
0
  5
19A
  0
LINE
  8
BORDERLINE
  5
19B
 10
14.0
 20
3.4
 30
0.0
 11
14.0
 21
9.25
 31
0.0
1001
VD_XPROPERTIES
  0
POLYLINE
  8
GRID_MAJOR
  5
19C
 66
     1
 10
0.0
 20
0.0
 30
0.0
1001
VDEXTRAPARAM
1071
        0
1071
        0
1071
        0
1040
1.0
1000

1000

1001
VD_XPROPERTIES
  0
VERTEX
  8
GRID_MAJOR
  5
19D
 10
13.0
 20
0.0
 30
0.0
  0
VERTEX
  8
GRID_MAJOR
  5
19E
 10
13.0
 20
9.0
 30
0.0
  0
SEQEND
  8
0
  5
19F
  0
POLYLINE
  8
GRID_MAJOR
  5
1A0
 66
     1
 10
0.0
 20
0.0
 30
0.0
1001
VDEXTRAPARAM
1071
        0
1071
        0
1071
        0
1040
1.0
1000

1000

1001
VD_XPROPERTIES
  0
VERTEX
  8
GRID_MAJOR
  5
1A1
 10
10.0
 20
0.0
 30
0.0
  0
VERTEX
  8
GRID_MAJOR
  5
1A2
 10
10.0
 20
9.0
 30
0.0
  0
SEQEND
  8
0
  5
1A3
  0
POLYLINE
  8
GRID_MAJOR
  5
1A4
 66
     1
 10
0.0
 20
0.0
 30
0.0
1001
VDEXTRAPARAM
1071
        0
1071
        0
1071
        0
1040
1.0
1000

1000

1001
VD_XPROPERTIES
  0
VERTEX
  8
GRID_MAJOR
  5
1A5
 10
9.0
 20
0.0
 30
0.0
  0
VERTEX
  8
GRID_MAJOR
  5
1A6
 10
9.0
 20
9.0
 30
0.0
  0
SEQEND
  8
0
  5
1A7
  0
POLYLINE
  8
GRID_MAJOR
  5
1A8
 66
     1
 10
0.0
 20
0.0
 30
0.0
1001
VDEXTRAPARAM
1071
        0
1071
        0
1071
        0
1040
1.0
1000

1000

1001
VD_XPROPERTIES
  0
VERTEX
  8
GRID_MAJOR
  5
1A9
 10
8.0
 20
0.0
 30
0.0
  0
VERTEX
  8
GRID_MAJOR
  5
1AA
 10
8.0
 20
9.0
 30
0.0
  0
SEQEND
  8
0
  5
1AB
  0
POLYLINE
  8
GRID_MINOR
  6
CONTINUOUS
 62
     8
  5
1AC
 66
     1
 10
0.0
 20
0.0
 30
0.0
1001
VDEXTRAPARAM
1071
        0
1071
        0
1071
        0
1040
1.0
1000

1000

1001
VD_XPROPERTIES
  0
VERTEX
  8
GRID_MINOR
  6
CONTINUOUS
 62
     8
  5
1AD
 10
7.8
 20
0.0
 30
0.0
  0
VERTEX
  8
GRID_MINOR
  6
CONTINUOUS
 62
     8
  5
1AE
 10
7.8
 20
9.0
 30
0.0
  0
SEQEND
  8
0
  5
1AF
  0
POLYLINE
  8
GRID_MINOR
  6
CONTINUOUS
 62
     8
  5
1B0
 66
     1
 10
0.0
 20
0.0
 30
0.0
1001
VDEXTRAPARAM
1071
        0
1071
        0
1071
        0
1040
1.0
1000

1000

1001
VD_XPROPERTIES
  0
VERTEX
  8
GRID_MINOR
  6
CONTINUOUS
 62
     8
  5
1B1
 10
7.9
 20
0.0
 30
0.0
  0
VERTEX
  8
GRID_MINOR
  6
CONTINUOUS
 62
     8
  5
1B2
 10
7.9
 20
9.0
 30
0.0
  0
SEQEND
  8
0
  5
1B3
  0
POLYLINE
  8
GRID_MINOR
  6
CONTINUOUS
 62
     8
  5
1B4
 66
     1
 10
0.0
 20
0.0
 30
0.0
1001
VDEXTRAPARAM
1071
        0
1071
        0
1071
        0
1040
1.0
1000

1000

1001
VD_XPROPERTIES
  0
VERTEX
  8
GRID_MINOR
  6
CONTINUOUS
 62
     8
  5
1B5
 10
8.1
 20
0.0
 30
0.0
  0
VERTEX
  8
GRID_MINOR
  6
CONTINUOUS
 62
     8
  5
1B6
 10
8.1
 20
9.0
 30
0.0
  0
SEQEND
  8
0
  5
1B7
  0
POLYLINE
  8
GRID_MINOR
  6
CONTINUOUS
 62
     8
  5
1B8
 66
     1
 10
0.0
 20
0.0
 30
0.0
1001
VDEXTRAPARAM
1071
        0
1071
        0
1071
        0
1040
1.0
1000

1000

1001
VD_XPROPERTIES
  0
VERTEX
  8
GRID_MINOR
  6
CONTINUOUS
 62
     8
  5
1B9
 10
8.2
 20
0.0
 30
0.0
  0
VERTEX
  8
GRID_MINOR
  6
CONTINUOUS
 62
     8
  5
1BA
 10
8.2
 20
9.0
 30
0.0
  0
SEQEND
  8
0
  5
1BB
  0
POLYLINE
  8
GRID_MINOR
  6
CONTINUOUS
 62
     8
  5
1BC
 66
     1
 10
0.0
 20
0.0
 30
0.0
1001
VDEXTRAPARAM
1071
        0
1071
        0
1071
        0
1040
1.0
1000

1000

1001
VD_XPROPERTIES
  0
VERTEX
  8
GRID_MINOR
  6
CONTINUOUS
 62
     8
  5
1BD
 10
8.3
 20
0.0
 30
0.0
  0
VERTEX
  8
GRID_MINOR
  6
CONTINUOUS
 62
     8
  5
1BE
 10
8.3
 20
9.0
 30
0.0
  0
SEQEND
  8
0
  5
1BF
  0
POLYLINE
  8
GRID_MINOR
  6
CONTINUOUS
 62
     8
  5
1C0
 66
     1
 10
0.0
 20
0.0
 30
0.0
1001
VDEXTRAPARAM
1071
        0
1071
        0
1071
        0
1040
1.0
1000

1000

1001
VD_XPROPERTIES
  0
VERTEX
  8
GRID_MINOR
  6
CONTINUOUS
 62
     8
  5
1C1
 10
8.4
 20
0.0
 30
0.0
  0
VERTEX
  8
GRID_MINOR
  6
CONTINUOUS
 62
     8
  5
1C2
 10
8.4
 20
9.0
 30
0.0
  0
SEQEND
  8
0
  5
1C3
  0
POLYLINE
  8
GRID_MINOR
  6
CONTINUOUS
 62
     8
  5
1C4
 66
     1
 10
0.0
 20
0.0
 30
0.0
1001
VDEXTRAPARAM
1071
        0
1071
        0
1071
        0
1040
1.0
1000

1000

1001
VD_XPROPERTIES
  0
VERTEX
  8
GRID_MINOR
  6
CONTINUOUS
 62
     8
  5
1C5
 10
8.5
 20
0.0
 30
0.0
  0
VERTEX
  8
GRID_MINOR
  6
CONTINUOUS
 62
     8
  5
1C6
 10
8.5
 20
9.0
 30
0.0
  0
SEQEND
  8
0
  5
1C7
  0
POLYLINE
  8
GRID_MINOR
  6
CONTINUOUS
 62
     8
  5
1C8
 66
     1
 10
0.0
 20
0.0
 30
0.0
1001
VDEXTRAPARAM
1071
        0
1071
        0
1071
        0
1040
1.0
1000

1000

1001
VD_XPROPERTIES
  0
VERTEX
  8
GRID_MINOR
  6
CONTINUOUS
 62
     8
  5
1C9
 10
8.6
 20
0.0
 30
0.0
  0
VERTEX
  8
GRID_MINOR
  6
CONTINUOUS
 62
     8
  5
1CA
 10
8.6
 20
9.0
 30
0.0
  0
SEQEND
  8
0
  5
1CB
  0
POLYLINE
  8
GRID_MINOR
  6
CONTINUOUS
 62
     8
  5
1CC
 66
     1
 10
0.0
 20
0.0
 30
0.0
1001
VDEXTRAPARAM
1071
        0
1071
        0
1071
        0
1040
1.0
1000

1000

1001
VD_XPROPERTIES
  0
VERTEX
  8
GRID_MINOR
  6
CONTINUOUS
 62
     8
  5
1CD
 10
8.7
 20
0.0
 30
0.0
  0
VERTEX
  8
GRID_MINOR
  6
CONTINUOUS
 62
     8
  5
1CE
 10
8.7
 20
9.0
 30
0.0
  0
SEQEND
  8
0
  5
1CF
  0
POLYLINE
  8
GRID_MINOR
  6
CONTINUOUS
 62
     8
  5
1D0
 66
     1
 10
0.0
 20
0.0
 30
0.0
1001
VDEXTRAPARAM
1071
        0
1071
        0
1071
        0
1040
1.0
1000

1000

1001
VD_XPROPERTIES
  0
VERTEX
  8
GRID_MINOR
  6
CONTINUOUS
 62
     8
  5
1D1
 10
8.8
 20
0.0
 30
0.0
  0
VERTEX
  8
GRID_MINOR
  6
CONTINUOUS
 62
     8
  5
1D2
 10
8.8
 20
9.0
 30
0.0
  0
SEQEND
  8
0
  5
1D3
  0
POLYLINE
  8
GRID_MINOR
  6
CONTINUOUS
 62
     8
  5
1D4
 66
     1
 10
0.0
 20
0.0
 30
0.0
1001
VDEXTRAPARAM
1071
        0
1071
        0
1071
        0
1040
1.0
1000

1000

1001
VD_XPROPERTIES
  0
VERTEX
  8
GRID_MINOR
  6
CONTINUOUS
 62
     8
  5
1D5
 10
8.9
 20
0.0
 30
0.0
  0
VERTEX
  8
GRID_MINOR
  6
CONTINUOUS
 62
     8
  5
1D6
 10
8.9
 20
9.0
 30
0.0
  0
SEQEND
  8
0
  5
1D7
  0
POLYLINE
  8
GRID_MINOR
  6
CONTINUOUS
 62
     8
  5
1D8
 66
     1
 10
0.0
 20
0.0
 30
0.0
1001
VDEXTRAPARAM
1071
        0
1071
        0
1071
        0
1040
1.0
1000

1000

1001
VD_XPROPERTIES
  0
VERTEX
  8
GRID_MINOR
  6
CONTINUOUS
 62
     8
  5
1D9
 10
9.1
 20
0.0
 30
0.0
  0
VERTEX
  8
GRID_MINOR
  6
CONTINUOUS
 62
     8
  5
1DA
 10
9.1
 20
9.0
 30
0.0
  0
SEQEND
  8
0
  5
1DB
  0
POLYLINE
  8
GRID_MINOR
  6
CONTINUOUS
 62
     8
  5
1DC
 66
     1
 10
0.0
 20
0.0
 30
0.0
1001
VDEXTRAPARAM
1071
        0
1071
        0
1071
        0
1040
1.0
1000

1000

1001
VD_XPROPERTIES
  0
VERTEX
  8
GRID_MINOR
  6
CONTINUOUS
 62
     8
  5
1DD
 10
9.2
 20
0.0
 30
0.0
  0
VERTEX
  8
GRID_MINOR
  6
CONTINUOUS
 62
     8
  5
1DE
 10
9.2
 20
9.0
 30
0.0
  0
SEQEND
  8
0
  5
1DF
  0
POLYLINE
  8
GRID_MINOR
  6
CONTINUOUS
 62
     8
  5
1E0
 66
     1
 10
0.0
 20
0.0
 30
0.0
1001
VDEXTRAPARAM
1071
        0
1071
        0
1071
        0
1040
1.0
1000

1000

1001
VD_XPROPERTIES
  0
VERTEX
  8
GRID_MINOR
  6
CONTINUOUS
 62
     8
  5
1E1
 10
9.3
 20
0.0
 30
0.0
  0
VERTEX
  8
GRID_MINOR
  6
CONTINUOUS
 62
     8
  5
1E2
 10
9.3
 20
9.0
 30
0.0
  0
SEQEND
  8
0
  5
1E3
  0
POLYLINE
  8
GRID_MINOR
  6
CONTINUOUS
 62
     8
  5
1E4
 66
     1
 10
0.0
 20
0.0
 30
0.0
1001
VDEXTRAPARAM
1071
        0
1071
        0
1071
        0
1040
1.0
1000

1000

1001
VD_XPROPERTIES
  0
VERTEX
  8
GRID_MINOR
  6
CONTINUOUS
 62
     8
  5
1E5
 10
9.4
 20
0.0
 30
0.0
  0
VERTEX
  8
GRID_MINOR
  6
CONTINUOUS
 62
     8
  5
1E6
 10
9.4
 20
9.0
 30
0.0
  0
SEQEND
  8
0
  5
1E7
  0
POLYLINE
  8
GRID_MINOR
  6
CONTINUOUS
 62
     8
  5
1E8
 66
     1
 10
0.0
 20
0.0
 30
0.0
1001
VDEXTRAPARAM
1071
        0
1071
        0
1071
        0
1040
1.0
1000

1000

1001
VD_XPROPERTIES
  0
VERTEX
  8
GRID_MINOR
  6
CONTINUOUS
 62
     8
  5
1E9
 10
9.5
 20
0.0
 30
0.0
  0
VERTEX
  8
GRID_MINOR
  6
CONTINUOUS
 62
     8
  5
1EA
 10
9.5
 20
9.0
 30
0.0
  0
SEQEND
  8
0
  5
1EB
  0
POLYLINE
  8
GRID_MINOR
  6
CONTINUOUS
 62
     8
  5
1EC
 66
     1
 10
0.0
 20
0.0
 30
0.0
1001
VDEXTRAPARAM
1071
        0
1071
        0
1071
        0
1040
1.0
1000

1000

1001
VD_XPROPERTIES
  0
VERTEX
  8
GRID_MINOR
  6
CONTINUOUS
 62
     8
  5
1ED
 10
9.6
 20
0.0
 30
0.0
  0
VERTEX
  8
GRID_MINOR
  6
CONTINUOUS
 62
     8
  5
1EE
 10
9.6
 20
9.0
 30
0.0
  0
SEQEND
  8
0
  5
1EF
  0
POLYLINE
  8
GRID_MINOR
  6
CONTINUOUS
 62
     8
  5
1F0
 66
     1
 10
0.0
 20
0.0
 30
0.0
1001
VDEXTRAPARAM
1071
        0
1071
        0
1071
        0
1040
1.0
1000

1000

1001
VD_XPROPERTIES
  0
VERTEX
  8
GRID_MINOR
  6
CONTINUOUS
 62
     8
  5
1F1
 10
9.7
 20
0.0
 30
0.0
  0
VERTEX
  8
GRID_MINOR
  6
CONTINUOUS
 62
     8
  5
1F2
 10
9.7
 20
9.0
 30
0.0
  0
SEQEND
  8
0
  5
1F3
  0
POLYLINE
  8
GRID_MINOR
  6
CONTINUOUS
 62
     8
  5
1F4
 66
     1
 10
0.0
 20
0.0
 30
0.0
1001
VDEXTRAPARAM
1071
        0
1071
        0
1071
        0
1040
1.0
1000

1000

1001
VD_XPROPERTIES
  0
VERTEX
  8
GRID_MINOR
  6
CONTINUOUS
 62
     8
  5
1F5
 10
9.8
 20
0.0
 30
0.0
  0
VERTEX
  8
GRID_MINOR
  6
CONTINUOUS
 62
     8
  5
1F6
 10
9.8
 20
9.0
 30
0.0
  0
SEQEND
  8
0
  5
1F7
  0
POLYLINE
  8
GRID_MINOR
  6
CONTINUOUS
 62
     8
  5
1F8
 66
     1
 10
0.0
 20
0.0
 30
0.0
1001
VDEXTRAPARAM
1071
        0
1071
        0
1071
        0
1040
1.0
1000

1000

1001
VD_XPROPERTIES
  0
VERTEX
  8
GRID_MINOR
  6
CONTINUOUS
 62
     8
  5
1F9
 10
9.9
 20
0.0
 30
0.0
  0
VERTEX
  8
GRID_MINOR
  6
CONTINUOUS
 62
     8
  5
1FA
 10
9.9
 20
9.0
 30
0.0
  0
SEQEND
  8
0
  5
1FB
  0
LINE
  8
GRID_MAJOR
  6
CONTINUOUS
  5
1FC
 10
11.0
 20
2.0
 30
0.0
 11
11.0
 21
9.0
 31
0.0
1001
VD_XPROPERTIES
  0
LINE
  8
GRID_MAJOR
  6
CONTINUOUS
  5
1FD
 10
12.0
 20
2.0
 30
0.0
 11
12.0
 21
9.0
 31
0.0
1001
VD_XPROPERTIES
  0
POLYLINE
  8
GRID_MINOR
  6
CONTINUOUS
 62
     8
  5
1FE
 66
     1
 10
0.0
 20
0.0
 30
0.0
1001
VDEXTRAPARAM
1071
        0
1071
        0
1071
        0
1040
1.0
1000

1000

1001
VD_XPROPERTIES
  0
VERTEX
  8
GRID_MINOR
  6
CONTINUOUS
 62
     8
  5
1FF
 10
10.1
 20
2.0
 30
0.0
  0
VERTEX
  8
GRID_MINOR
  6
CONTINUOUS
 62
     8
  5
200
 10
10.1
 20
9.0
 30
0.0
  0
SEQEND
  8
0
  5
201
  0
POLYLINE
  8
GRID_MINOR
  6
CONTINUOUS
 62
     8
  5
202
 66
     1
 10
0.0
 20
0.0
 30
0.0
1001
VDEXTRAPARAM
1071
        0
1071
        0
1071
        0
1040
1.0
1000

1000

1001
VD_XPROPERTIES
  0
VERTEX
  8
GRID_MINOR
  6
CONTINUOUS
 62
     8
  5
203
 10
10.2
 20
2.0
 30
0.0
  0
VERTEX
  8
GRID_MINOR
  6
CONTINUOUS
 62
     8
  5
204
 10
10.2
 20
9.0
 30
0.0
  0
SEQEND
  8
0
  5
205
  0
POLYLINE
  8
GRID_MINOR
  6
CONTINUOUS
 62
     8
  5
206
 66
     1
 10
0.0
 20
0.0
 30
0.0
1001
VDEXTRAPARAM
1071
        0
1071
        0
1071
        0
1040
1.0
1000

1000

1001
VD_XPROPERTIES
  0
VERTEX
  8
GRID_MINOR
  6
CONTINUOUS
 62
     8
  5
207
 10
10.3
 20
2.0
 30
0.0
  0
VERTEX
  8
GRID_MINOR
  6
CONTINUOUS
 62
     8
  5
208
 10
10.3
 20
9.0
 30
0.0
  0
SEQEND
  8
0
  5
209
  0
POLYLINE
  8
GRID_MINOR
  6
CONTINUOUS
 62
     8
  5
20A
 66
     1
 10
0.0
 20
0.0
 30
0.0
1001
VDEXTRAPARAM
1071
        0
1071
        0
1071
        0
1040
1.0
1000

1000

1001
VD_XPROPERTIES
  0
VERTEX
  8
GRID_MINOR
  6
CONTINUOUS
 62
     8
  5
20B
 10
10.4
 20
2.0
 30
0.0
  0
VERTEX
  8
GRID_MINOR
  6
CONTINUOUS
 62
     8
  5
20C
 10
10.4
 20
9.0
 30
0.0
  0
SEQEND
  8
0
  5
20D
  0
POLYLINE
  8
GRID_MINOR
  6
CONTINUOUS
 62
     8
  5
20E
 66
     1
 10
0.0
 20
0.0
 30
0.0
1001
VDEXTRAPARAM
1071
        0
1071
        0
1071
        0
1040
1.0
1000

1000

1001
VD_XPROPERTIES
  0
VERTEX
  8
GRID_MINOR
  6
CONTINUOUS
 62
     8
  5
20F
 10
10.5
 20
2.0
 30
0.0
  0
VERTEX
  8
GRID_MINOR
  6
CONTINUOUS
 62
     8
  5
210
 10
10.5
 20
9.0
 30
0.0
  0
SEQEND
  8
0
  5
211
  0
POLYLINE
  8
GRID_MINOR
  6
CONTINUOUS
 62
     8
  5
212
 66
     1
 10
0.0
 20
0.0
 30
0.0
1001
VDEXTRAPARAM
1071
        0
1071
        0
1071
        0
1040
1.0
1000

1000

1001
VD_XPROPERTIES
  0
VERTEX
  8
GRID_MINOR
  6
CONTINUOUS
 62
     8
  5
213
 10
10.6
 20
2.0
 30
0.0
  0
VERTEX
  8
GRID_MINOR
  6
CONTINUOUS
 62
     8
  5
214
 10
10.6
 20
9.0
 30
0.0
  0
SEQEND
  8
0
  5
215
  0
POLYLINE
  8
GRID_MINOR
  6
CONTINUOUS
 62
     8
  5
216
 66
     1
 10
0.0
 20
0.0
 30
0.0
1001
VDEXTRAPARAM
1071
        0
1071
        0
1071
        0
1040
1.0
1000

1000

1001
VD_XPROPERTIES
  0
VERTEX
  8
GRID_MINOR
  6
CONTINUOUS
 62
     8
  5
217
 10
10.7
 20
2.0
 30
0.0
  0
VERTEX
  8
GRID_MINOR
  6
CONTINUOUS
 62
     8
  5
218
 10
10.7
 20
9.0
 30
0.0
  0
SEQEND
  8
0
  5
219
  0
POLYLINE
  8
GRID_MINOR
  6
CONTINUOUS
 62
     8
  5
21A
 66
     1
 10
0.0
 20
0.0
 30
0.0
1001
VDEXTRAPARAM
1071
        0
1071
        0
1071
        0
1040
1.0
1000

1000

1001
VD_XPROPERTIES
  0
VERTEX
  8
GRID_MINOR
  6
CONTINUOUS
 62
     8
  5
21B
 10
10.8
 20
2.0
 30
0.0
  0
VERTEX
  8
GRID_MINOR
  6
CONTINUOUS
 62
     8
  5
21C
 10
10.8
 20
9.0
 30
0.0
  0
SEQEND
  8
0
  5
21D
  0
POLYLINE
  8
GRID_MINOR
  6
CONTINUOUS
 62
     8
  5
21E
 66
     1
 10
0.0
 20
0.0
 30
0.0
1001
VDEXTRAPARAM
1071
        0
1071
        0
1071
        0
1040
1.0
1000

1000

1001
VD_XPROPERTIES
  0
VERTEX
  8
GRID_MINOR
  6
CONTINUOUS
 62
     8
  5
21F
 10
10.9
 20
2.0
 30
0.0
  0
VERTEX
  8
GRID_MINOR
  6
CONTINUOUS
 62
     8
  5
220
 10
10.9
 20
9.0
 30
0.0
  0
SEQEND
  8
0
  5
221
  0
POLYLINE
  8
GRID_MINOR
  6
CONTINUOUS
 62
     8
  5
222
 66
     1
 10
0.0
 20
0.0
 30
0.0
1001
VDEXTRAPARAM
1071
        0
1071
        0
1071
        0
1040
1.0
1000

1000

1001
VD_XPROPERTIES
  0
VERTEX
  8
GRID_MINOR
  6
CONTINUOUS
 62
     8
  5
223
 10
11.1
 20
2.0
 30
0.0
  0
VERTEX
  8
GRID_MINOR
  6
CONTINUOUS
 62
     8
  5
224
 10
11.1
 20
9.0
 30
0.0
  0
SEQEND
  8
0
  5
225
  0
POLYLINE
  8
GRID_MINOR
  6
CONTINUOUS
 62
     8
  5
226
 66
     1
 10
0.0
 20
0.0
 30
0.0
1001
VDEXTRAPARAM
1071
        0
1071
        0
1071
        0
1040
1.0
1000

1000

1001
VD_XPROPERTIES
  0
VERTEX
  8
GRID_MINOR
  6
CONTINUOUS
 62
     8
  5
227
 10
11.2
 20
2.0
 30
0.0
  0
VERTEX
  8
GRID_MINOR
  6
CONTINUOUS
 62
     8
  5
228
 10
11.2
 20
9.0
 30
0.0
  0
SEQEND
  8
0
  5
229
  0
POLYLINE
  8
GRID_MINOR
  6
CONTINUOUS
 62
     8
  5
22A
 66
     1
 10
0.0
 20
0.0
 30
0.0
1001
VDEXTRAPARAM
1071
        0
1071
        0
1071
        0
1040
1.0
1000

1000

1001
VD_XPROPERTIES
  0
VERTEX
  8
GRID_MINOR
  6
CONTINUOUS
 62
     8
  5
22B
 10
11.3
 20
2.0
 30
0.0
  0
VERTEX
  8
GRID_MINOR
  6
CONTINUOUS
 62
     8
  5
22C
 10
11.3
 20
9.0
 30
0.0
  0
SEQEND
  8
0
  5
22D
  0
POLYLINE
  8
GRID_MINOR
  6
CONTINUOUS
 62
     8
  5
22E
 66
     1
 10
0.0
 20
0.0
 30
0.0
1001
VDEXTRAPARAM
1071
        0
1071
        0
1071
        0
1040
1.0
1000

1000

1001
VD_XPROPERTIES
  0
VERTEX
  8
GRID_MINOR
  6
CONTINUOUS
 62
     8
  5
22F
 10
11.4
 20
2.0
 30
0.0
  0
VERTEX
  8
GRID_MINOR
  6
CONTINUOUS
 62
     8
  5
230
 10
11.4
 20
9.0
 30
0.0
  0
SEQEND
  8
0
  5
231
  0
POLYLINE
  8
GRID_MINOR
  6
CONTINUOUS
 62
     8
  5
232
 66
     1
 10
0.0
 20
0.0
 30
0.0
1001
VDEXTRAPARAM
1071
        0
1071
        0
1071
        0
1040
1.0
1000

1000

1001
VD_XPROPERTIES
  0
VERTEX
  8
GRID_MINOR
  6
CONTINUOUS
 62
     8
  5
233
 10
11.5
 20
2.0
 30
0.0
  0
VERTEX
  8
GRID_MINOR
  6
CONTINUOUS
 62
     8
  5
234
 10
11.5
 20
9.0
 30
0.0
  0
SEQEND
  8
0
  5
235
  0
POLYLINE
  8
GRID_MINOR
  6
CONTINUOUS
 62
     8
  5
236
 66
     1
 10
0.0
 20
0.0
 30
0.0
1001
VDEXTRAPARAM
1071
        0
1071
        0
1071
        0
1040
1.0
1000

1000

1001
VD_XPROPERTIES
  0
VERTEX
  8
GRID_MINOR
  6
CONTINUOUS
 62
     8
  5
237
 10
11.6
 20
2.0
 30
0.0
  0
VERTEX
  8
GRID_MINOR
  6
CONTINUOUS
 62
     8
  5
238
 10
11.6
 20
9.0
 30
0.0
  0
SEQEND
  8
0
  5
239
  0
POLYLINE
  8
GRID_MINOR
  6
CONTINUOUS
 62
     8
  5
23A
 66
     1
 10
0.0
 20
0.0
 30
0.0
1001
VDEXTRAPARAM
1071
        0
1071
        0
1071
        0
1040
1.0
1000

1000

1001
VD_XPROPERTIES
  0
VERTEX
  8
GRID_MINOR
  6
CONTINUOUS
 62
     8
  5
23B
 10
11.7
 20
2.0
 30
0.0
  0
VERTEX
  8
GRID_MINOR
  6
CONTINUOUS
 62
     8
  5
23C
 10
11.7
 20
9.0
 30
0.0
  0
SEQEND
  8
0
  5
23D
  0
POLYLINE
  8
GRID_MINOR
  6
CONTINUOUS
 62
     8
  5
23E
 66
     1
 10
0.0
 20
0.0
 30
0.0
1001
VDEXTRAPARAM
1071
        0
1071
        0
1071
        0
1040
1.0
1000

1000

1001
VD_XPROPERTIES
  0
VERTEX
  8
GRID_MINOR
  6
CONTINUOUS
 62
     8
  5
23F
 10
11.8
 20
2.0
 30
0.0
  0
VERTEX
  8
GRID_MINOR
  6
CONTINUOUS
 62
     8
  5
240
 10
11.8
 20
9.0
 30
0.0
  0
SEQEND
  8
0
  5
241
  0
POLYLINE
  8
GRID_MINOR
  6
CONTINUOUS
 62
     8
  5
242
 66
     1
 10
0.0
 20
0.0
 30
0.0
1001
VDEXTRAPARAM
1071
        0
1071
        0
1071
        0
1040
1.0
1000

1000

1001
VD_XPROPERTIES
  0
VERTEX
  8
GRID_MINOR
  6
CONTINUOUS
 62
     8
  5
243
 10
11.9
 20
2.0
 30
0.0
  0
VERTEX
  8
GRID_MINOR
  6
CONTINUOUS
 62
     8
  5
244
 10
11.9
 20
9.0
 30
0.0
  0
SEQEND
  8
0
  5
245
  0
POLYLINE
  8
GRID_MINOR
  6
CONTINUOUS
 62
     8
  5
246
 66
     1
 10
0.0
 20
0.0
 30
0.0
1001
VDEXTRAPARAM
1071
        0
1071
        0
1071
        0
1040
1.0
1000

1000

1001
VD_XPROPERTIES
  0
VERTEX
  8
GRID_MINOR
  6
CONTINUOUS
 62
     8
  5
247
 10
12.1
 20
2.0
 30
0.0
  0
VERTEX
  8
GRID_MINOR
  6
CONTINUOUS
 62
     8
  5
248
 10
12.1
 20
9.0
 30
0.0
  0
SEQEND
  8
0
  5
249
  0
POLYLINE
  8
GRID_MINOR
  6
CONTINUOUS
 62
     8
  5
24A
 66
     1
 10
0.0
 20
0.0
 30
0.0
1001
VDEXTRAPARAM
1071
        0
1071
        0
1071
        0
1040
1.0
1000

1000

1001
VD_XPROPERTIES
  0
VERTEX
  8
GRID_MINOR
  6
CONTINUOUS
 62
     8
  5
24B
 10
12.2
 20
2.0
 30
0.0
  0
VERTEX
  8
GRID_MINOR
  6
CONTINUOUS
 62
     8
  5
24C
 10
12.2
 20
9.0
 30
0.0
  0
SEQEND
  8
0
  5
24D
  0
POLYLINE
  8
GRID_MINOR
  6
CONTINUOUS
 62
     8
  5
24E
 66
     1
 10
0.0
 20
0.0
 30
0.0
1001
VDEXTRAPARAM
1071
        0
1071
        0
1071
        0
1040
1.0
1000

1000

1001
VD_XPROPERTIES
  0
VERTEX
  8
GRID_MINOR
  6
CONTINUOUS
 62
     8
  5
24F
 10
12.3
 20
2.0
 30
0.0
  0
VERTEX
  8
GRID_MINOR
  6
CONTINUOUS
 62
     8
  5
250
 10
12.3
 20
9.0
 30
0.0
  0
SEQEND
  8
0
  5
251
  0
POLYLINE
  8
GRID_MINOR
  6
CONTINUOUS
 62
     8
  5
252
 66
     1
 10
0.0
 20
0.0
 30
0.0
1001
VDEXTRAPARAM
1071
        0
1071
        0
1071
        0
1040
1.0
1000

1000

1001
VD_XPROPERTIES
  0
VERTEX
  8
GRID_MINOR
  6
CONTINUOUS
 62
     8
  5
253
 10
12.4
 20
2.0
 30
0.0
  0
VERTEX
  8
GRID_MINOR
  6
CONTINUOUS
 62
     8
  5
254
 10
12.4
 20
9.0
 30
0.0
  0
SEQEND
  8
0
  5
255
  0
POLYLINE
  8
GRID_MINOR
  6
CONTINUOUS
 62
     8
  5
256
 66
     1
 10
0.0
 20
0.0
 30
0.0
1001
VDEXTRAPARAM
1071
        0
1071
        0
1071
        0
1040
1.0
1000

1000

1001
VD_XPROPERTIES
  0
VERTEX
  8
GRID_MINOR
  6
CONTINUOUS
 62
     8
  5
257
 10
12.5
 20
2.0
 30
0.0
  0
VERTEX
  8
GRID_MINOR
  6
CONTINUOUS
 62
     8
  5
258
 10
12.5
 20
9.0
 30
0.0
  0
SEQEND
  8
0
  5
259
  0
POLYLINE
  8
GRID_MINOR
  6
CONTINUOUS
 62
     8
  5
25A
 66
     1
 10
0.0
 20
0.0
 30
0.0
1001
VDEXTRAPARAM
1071
        0
1071
        0
1071
        0
1040
1.0
1000

1000

1001
VD_XPROPERTIES
  0
VERTEX
  8
GRID_MINOR
  6
CONTINUOUS
 62
     8
  5
25B
 10
12.6
 20
2.0
 30
0.0
  0
VERTEX
  8
GRID_MINOR
  6
CONTINUOUS
 62
     8
  5
25C
 10
12.6
 20
9.0
 30
0.0
  0
SEQEND
  8
0
  5
25D
  0
POLYLINE
  8
GRID_MINOR
  6
CONTINUOUS
 62
     8
  5
25E
 66
     1
 10
0.0
 20
0.0
 30
0.0
1001
VDEXTRAPARAM
1071
        0
1071
        0
1071
        0
1040
1.0
1000

1000

1001
VD_XPROPERTIES
  0
VERTEX
  8
GRID_MINOR
  6
CONTINUOUS
 62
     8
  5
25F
 10
12.7
 20
2.0
 30
0.0
  0
VERTEX
  8
GRID_MINOR
  6
CONTINUOUS
 62
     8
  5
260
 10
12.7
 20
9.0
 30
0.0
  0
SEQEND
  8
0
  5
261
  0
POLYLINE
  8
GRID_MINOR
  6
CONTINUOUS
 62
     8
  5
262
 66
     1
 10
0.0
 20
0.0
 30
0.0
1001
VDEXTRAPARAM
1071
        0
1071
        0
1071
        0
1040
1.0
1000

1000

1001
VD_XPROPERTIES
  0
VERTEX
  8
GRID_MINOR
  6
CONTINUOUS
 62
     8
  5
263
 10
12.8
 20
2.0
 30
0.0
  0
VERTEX
  8
GRID_MINOR
  6
CONTINUOUS
 62
     8
  5
264
 10
12.8
 20
9.0
 30
0.0
  0
SEQEND
  8
0
  5
265
  0
POLYLINE
  8
GRID_MINOR
  6
CONTINUOUS
 62
     8
  5
266
 66
     1
 10
0.0
 20
0.0
 30
0.0
1001
VDEXTRAPARAM
1071
        0
1071
        0
1071
        0
1040
1.0
1000

1000

1001
VD_XPROPERTIES
  0
VERTEX
  8
GRID_MINOR
  6
CONTINUOUS
 62
     8
  5
267
 10
12.9
 20
2.0
 30
0.0
  0
VERTEX
  8
GRID_MINOR
  6
CONTINUOUS
 62
     8
  5
268
 10
12.9
 20
9.0
 30
0.0
  0
SEQEND
  8
0
  5
269
  0
POLYLINE
  8
GRID_MINOR
  6
CONTINUOUS
 62
     8
  5
26A
 66
     1
 10
0.0
 20
0.0
 30
0.0
1001
VDEXTRAPARAM
1071
        0
1071
        0
1071
        0
1040
1.0
1000

1000

1001
VD_XPROPERTIES
  0
VERTEX
  8
GRID_MINOR
  6
CONTINUOUS
 62
     8
  5
26B
 10
7.6
 20
0.0
 30
0.0
  0
VERTEX
  8
GRID_MINOR
  6
CONTINUOUS
 62
     8
  5
26C
 10
7.6
 20
9.0
 30
0.0
  0
SEQEND
  8
0
  5
26D
  0
POLYLINE
  8
GRID_MINOR
  6
CONTINUOUS
 62
     8
  5
26E
 66
     1
 10
0.0
 20
0.0
 30
0.0
1001
VDEXTRAPARAM
1071
        0
1071
        0
1071
        0
1040
1.0
1000

1000

1001
VD_XPROPERTIES
  0
VERTEX
  8
GRID_MINOR
  6
CONTINUOUS
 62
     8
  5
26F
 10
7.7
 20
0.0
 30
0.0
  0
VERTEX
  8
GRID_MINOR
  6
CONTINUOUS
 62
     8
  5
270
 10
7.7
 20
9.0
 30
0.0
  0
SEQEND
  8
0
  5
271
  0
POLYLINE
  8
BORDERLINE
  5
272
 66
     1
 10
0.0
 20
0.0
 30
0.0
1001
VDEXTRAPARAM
1071
        0
1071
        0
1071
        0
1040
1.0
1000

1000

1001
VD_XPROPERTIES
  0
VERTEX
  8
BORDERLINE
  5
273
 10
13.5
 20
-0.35
 30
0.0
  0
VERTEX
  8
BORDERLINE
  5
274
 10
14.5
 20
-0.35
 30
0.0
  0
SEQEND
  8
0
  5
275
  0
POLYLINE
  8
GRID_MAJOR
  5
276
 66
     1
 10
0.0
 20
0.0
 30
0.0
1001
VDEXTRAPARAM
1071
        0
1071
        0
1071
        0
1040
1.0
1000

1000

1001
VD_XPROPERTIES
  0
VERTEX
  8
GRID_MAJOR
  5
277
 10
0.0
 20
0.0
 30
0.0
  0
VERTEX
  8
GRID_MAJOR
  5
278
 10
13.0
 20
0.0
 30
0.0
  0
SEQEND
  8
0
  5
279
  0
LINE
  8
GRID_MAJOR
  5
27A
 10
0.0
 20
1.0
 30
0.0
 11
10.0
 21
1.0
 31
0.0
1001
VD_XPROPERTIES
  0
POLYLINE
  8
GRID_MINOR
  6
CONTINUOUS
 62
     8
  5
27B
 66
     1
 10
0.0
 20
0.0
 30
0.0
1001
VDEXTRAPARAM
1071
        0
1071
        0
1071
        0
1040
1.0
1000

1000

1001
VD_XPROPERTIES
  0
VERTEX
  8
GRID_MINOR
  6
CONTINUOUS
 62
     8
  5
27C
 10
0.0
 20
0.1
 30
0.0
  0
VERTEX
  8
GRID_MINOR
  6
CONTINUOUS
 62
     8
  5
27D
 10
10.0
 20
0.1
 30
0.0
  0
SEQEND
  8
0
  5
27E
  0
POLYLINE
  8
GRID_MINOR
  6
CONTINUOUS
 62
     8
  5
27F
 66
     1
 10
0.0
 20
0.0
 30
0.0
1001
VDEXTRAPARAM
1071
        0
1071
        0
1071
        0
1040
1.0
1000

1000

1001
VD_XPROPERTIES
  0
VERTEX
  8
GRID_MINOR
  6
CONTINUOUS
 62
     8
  5
280
 10
0.0
 20
0.2
 30
0.0
  0
VERTEX
  8
GRID_MINOR
  6
CONTINUOUS
 62
     8
  5
281
 10
10.0
 20
0.2
 30
0.0
  0
SEQEND
  8
0
  5
282
  0
POLYLINE
  8
GRID_MINOR
  6
CONTINUOUS
 62
     8
  5
283
 66
     1
 10
0.0
 20
0.0
 30
0.0
1001
VDEXTRAPARAM
1071
        0
1071
        0
1071
        0
1040
1.0
1000

1000

1001
VD_XPROPERTIES
  0
VERTEX
  8
GRID_MINOR
  6
CONTINUOUS
 62
     8
  5
284
 10
0.0
 20
0.3
 30
0.0
  0
VERTEX
  8
GRID_MINOR
  6
CONTINUOUS
 62
     8
  5
285
 10
10.0
 20
0.3
 30
0.0
  0
SEQEND
  8
0
  5
286
  0
POLYLINE
  8
GRID_MINOR
  6
CONTINUOUS
 62
     8
  5
287
 66
     1
 10
0.0
 20
0.0
 30
0.0
1001
VDEXTRAPARAM
1071
        0
1071
        0
1071
        0
1040
1.0
1000

1000

1001
VD_XPROPERTIES
  0
VERTEX
  8
GRID_MINOR
  6
CONTINUOUS
 62
     8
  5
288
 10
0.0
 20
0.4
 30
0.0
  0
VERTEX
  8
GRID_MINOR
  6
CONTINUOUS
 62
     8
  5
289
 10
10.0
 20
0.4
 30
0.0
  0
SEQEND
  8
0
  5
28A
  0
POLYLINE
  8
GRID_MINOR
  6
CONTINUOUS
 62
     8
  5
28B
 66
     1
 10
0.0
 20
0.0
 30
0.0
1001
VDEXTRAPARAM
1071
        0
1071
        0
1071
        0
1040
1.0
1000

1000

1001
VD_XPROPERTIES
  0
VERTEX
  8
GRID_MINOR
  6
CONTINUOUS
 62
     8
  5
28C
 10
0.0
 20
0.5
 30
0.0
  0
VERTEX
  8
GRID_MINOR
  6
CONTINUOUS
 62
     8
  5
28D
 10
10.0
 20
0.5
 30
0.0
  0
SEQEND
  8
0
  5
28E
  0
POLYLINE
  8
GRID_MINOR
  6
CONTINUOUS
 62
     8
  5
28F
 66
     1
 10
0.0
 20
0.0
 30
0.0
1001
VDEXTRAPARAM
1071
        0
1071
        0
1071
        0
1040
1.0
1000

1000

1001
VD_XPROPERTIES
  0
VERTEX
  8
GRID_MINOR
  6
CONTINUOUS
 62
     8
  5
290
 10
0.0
 20
0.6
 30
0.0
  0
VERTEX
  8
GRID_MINOR
  6
CONTINUOUS
 62
     8
  5
291
 10
10.0
 20
0.6
 30
0.0
  0
SEQEND
  8
0
  5
292
  0
POLYLINE
  8
GRID_MINOR
  6
CONTINUOUS
 62
     8
  5
293
 66
     1
 10
0.0
 20
0.0
 30
0.0
1001
VDEXTRAPARAM
1071
        0
1071
        0
1071
        0
1040
1.0
1000

1000

1001
VD_XPROPERTIES
  0
VERTEX
  8
GRID_MINOR
  6
CONTINUOUS
 62
     8
  5
294
 10
0.0
 20
0.7
 30
0.0
  0
VERTEX
  8
GRID_MINOR
  6
CONTINUOUS
 62
     8
  5
295
 10
10.0
 20
0.7
 30
0.0
  0
SEQEND
  8
0
  5
296
  0
POLYLINE
  8
GRID_MINOR
  6
CONTINUOUS
 62
     8
  5
297
 66
     1
 10
0.0
 20
0.0
 30
0.0
1001
VDEXTRAPARAM
1071
        0
1071
        0
1071
        0
1040
1.0
1000

1000

1001
VD_XPROPERTIES
  0
VERTEX
  8
GRID_MINOR
  6
CONTINUOUS
 62
     8
  5
298
 10
0.0
 20
0.8
 30
0.0
  0
VERTEX
  8
GRID_MINOR
  6
CONTINUOUS
 62
     8
  5
299
 10
10.0
 20
0.8
 30
0.0
  0
SEQEND
  8
0
  5
29A
  0
POLYLINE
  8
GRID_MINOR
  6
CONTINUOUS
 62
     8
  5
29B
 66
     1
 10
0.0
 20
0.0
 30
0.0
1001
VDEXTRAPARAM
1071
        0
1071
        0
1071
        0
1040
1.0
1000

1000

1001
VD_XPROPERTIES
  0
VERTEX
  8
GRID_MINOR
  6
CONTINUOUS
 62
     8
  5
29C
 10
0.0
 20
0.9
 30
0.0
  0
VERTEX
  8
GRID_MINOR
  6
CONTINUOUS
 62
     8
  5
29D
 10
10.0
 20
0.9
 30
0.0
  0
SEQEND
  8
0
  5
29E
  0
POLYLINE
  8
GRID_MINOR
  6
CONTINUOUS
 62
     8
  5
29F
 66
     1
 10
0.0
 20
0.0
 30
0.0
1001
VDEXTRAPARAM
1071
        0
1071
        0
1071
        0
1040
1.0
1000

1000

1001
VD_XPROPERTIES
  0
VERTEX
  8
GRID_MINOR
  6
CONTINUOUS
 62
     8
  5
2A0
 10
0.0
 20
1.1
 30
0.0
  0
VERTEX
  8
GRID_MINOR
  6
CONTINUOUS
 62
     8
  5
2A1
 10
10.0
 20
1.1
 30
0.0
  0
SEQEND
  8
0
  5
2A2
  0
POLYLINE
  8
BORDERLINE
  5
2A3
 66
     1
 10
0.0
 20
0.0
 30
0.0
1001
VDEXTRAPARAM
1071
        0
1071
        0
1071
        0
1040
1.0
1000

1000

1001
VD_XPROPERTIES
  0
VERTEX
  8
BORDERLINE
  5
2A4
 10
13.5
 20
3.4
 30
0.0
  0
VERTEX
  8
BORDERLINE
  5
2A5
 10
14.5
 20
3.4
 30
0.0
  0
SEQEND
  8
0
  5
2A6
  0
POLYLINE
  8
GRID_MAJOR
  5
2A7
 66
     1
 10
0.0
 20
0.0
 30
0.0
1001
VDEXTRAPARAM
1071
        0
1071
        0
1071
        0
1040
1.0
1000

1000

1001
VD_XPROPERTIES
  0
VERTEX
  8
GRID_MAJOR
  5
2A8
 10
0.0
 20
2.0
 30
0.0
  0
VERTEX
  8
GRID_MAJOR
  5
2A9
 10
13.0
 20
2.0
 30
0.0
  0
SEQEND
  8
0
  5
2AA
  0
POLYLINE
  8
GRID_MAJOR
  5
2AB
 66
     1
 10
0.0
 20
0.0
 30
0.0
1001
VDEXTRAPARAM
1071
        0
1071
        0
1071
        0
1040
1.0
1000

1000

1001
VD_XPROPERTIES
  0
VERTEX
  8
GRID_MAJOR
  5
2AC
 10
0.0
 20
3.0
 30
0.0
  0
VERTEX
  8
GRID_MAJOR
  5
2AD
 10
13.0
 20
3.0
 30
0.0
  0
SEQEND
  8
0
  5
2AE
  0
POLYLINE
  8
GRID_MAJOR
  5
2AF
 66
     1
 10
0.0
 20
0.0
 30
0.0
1001
VDEXTRAPARAM
1071
        0
1071
        0
1071
        0
1040
1.0
1000

1000

1001
VD_XPROPERTIES
  0
VERTEX
  8
GRID_MAJOR
  5
2B0
 10
0.0
 20
4.0
 30
0.0
  0
VERTEX
  8
GRID_MAJOR
  5
2B1
 10
13.0
 20
4.0
 30
0.0
  0
SEQEND
  8
0
  5
2B2
  0
POLYLINE
  8
GRID_MINOR
  6
CONTINUOUS
 62
     8
  5
2B3
 66
     1
 10
0.0
 20
0.0
 30
0.0
1001
VDEXTRAPARAM
1071
        0
1071
        0
1071
        0
1040
1.0
1000

1000

1001
VD_XPROPERTIES
  0
VERTEX
  8
GRID_MINOR
  6
CONTINUOUS
 62
     8
  5
2B4
 10
0.0
 20
1.2
 30
0.0
  0
VERTEX
  8
GRID_MINOR
  6
CONTINUOUS
 62
     8
  5
2B5
 10
10.0
 20
1.2
 30
0.0
  0
SEQEND
  8
0
  5
2B6
  0
POLYLINE
  8
GRID_MINOR
  6
CONTINUOUS
 62
     8
  5
2B7
 66
     1
 10
0.0
 20
0.0
 30
0.0
1001
VDEXTRAPARAM
1071
        0
1071
        0
1071
        0
1040
1.0
1000

1000

1001
VD_XPROPERTIES
  0
VERTEX
  8
GRID_MINOR
  6
CONTINUOUS
 62
     8
  5
2B8
 10
0.0
 20
1.3
 30
0.0
  0
VERTEX
  8
GRID_MINOR
  6
CONTINUOUS
 62
     8
  5
2B9
 10
10.0
 20
1.3
 30
0.0
  0
SEQEND
  8
0
  5
2BA
  0
POLYLINE
  8
GRID_MINOR
  6
CONTINUOUS
 62
     8
  5
2BB
 66
     1
 10
0.0
 20
0.0
 30
0.0
1001
VDEXTRAPARAM
1071
        0
1071
        0
1071
        0
1040
1.0
1000

1000

1001
VD_XPROPERTIES
  0
VERTEX
  8
GRID_MINOR
  6
CONTINUOUS
 62
     8
  5
2BC
 10
0.0
 20
1.4
 30
0.0
  0
VERTEX
  8
GRID_MINOR
  6
CONTINUOUS
 62
     8
  5
2BD
 10
10.0
 20
1.4
 30
0.0
  0
SEQEND
  8
0
  5
2BE
  0
POLYLINE
  8
GRID_MINOR
  6
CONTINUOUS
 62
     8
  5
2BF
 66
     1
 10
0.0
 20
0.0
 30
0.0
1001
VDEXTRAPARAM
1071
        0
1071
        0
1071
        0
1040
1.0
1000

1000

1001
VD_XPROPERTIES
  0
VERTEX
  8
GRID_MINOR
  6
CONTINUOUS
 62
     8
  5
2C0
 10
0.0
 20
1.5
 30
0.0
  0
VERTEX
  8
GRID_MINOR
  6
CONTINUOUS
 62
     8
  5
2C1
 10
10.0
 20
1.5
 30
0.0
  0
SEQEND
  8
0
  5
2C2
  0
POLYLINE
  8
GRID_MINOR
  6
CONTINUOUS
 62
     8
  5
2C3
 66
     1
 10
0.0
 20
0.0
 30
0.0
1001
VDEXTRAPARAM
1071
        0
1071
        0
1071
        0
1040
1.0
1000

1000

1001
VD_XPROPERTIES
  0
VERTEX
  8
GRID_MINOR
  6
CONTINUOUS
 62
     8
  5
2C4
 10
0.0
 20
1.6
 30
0.0
  0
VERTEX
  8
GRID_MINOR
  6
CONTINUOUS
 62
     8
  5
2C5
 10
10.0
 20
1.6
 30
0.0
  0
SEQEND
  8
0
  5
2C6
  0
POLYLINE
  8
GRID_MINOR
  6
CONTINUOUS
 62
     8
  5
2C7
 66
     1
 10
0.0
 20
0.0
 30
0.0
1001
VDEXTRAPARAM
1071
        0
1071
        0
1071
        0
1040
1.0
1000

1000

1001
VD_XPROPERTIES
  0
VERTEX
  8
GRID_MINOR
  6
CONTINUOUS
 62
     8
  5
2C8
 10
0.0
 20
1.7
 30
0.0
  0
VERTEX
  8
GRID_MINOR
  6
CONTINUOUS
 62
     8
  5
2C9
 10
10.0
 20
1.7
 30
0.0
  0
SEQEND
  8
0
  5
2CA
  0
POLYLINE
  8
GRID_MINOR
  6
CONTINUOUS
 62
     8
  5
2CB
 66
     1
 10
0.0
 20
0.0
 30
0.0
1001
VDEXTRAPARAM
1071
        0
1071
        0
1071
        0
1040
1.0
1000

1000

1001
VD_XPROPERTIES
  0
VERTEX
  8
GRID_MINOR
  6
CONTINUOUS
 62
     8
  5
2CC
 10
0.0
 20
1.8
 30
0.0
  0
VERTEX
  8
GRID_MINOR
  6
CONTINUOUS
 62
     8
  5
2CD
 10
10.0
 20
1.8
 30
0.0
  0
SEQEND
  8
0
  5
2CE
  0
POLYLINE
  8
GRID_MINOR
  6
CONTINUOUS
 62
     8
  5
2CF
 66
     1
 10
0.0
 20
0.0
 30
0.0
1001
VDEXTRAPARAM
1071
        0
1071
        0
1071
        0
1040
1.0
1000

1000

1001
VD_XPROPERTIES
  0
VERTEX
  8
GRID_MINOR
  6
CONTINUOUS
 62
     8
  5
2D0
 10
0.0
 20
1.9
 30
0.0
  0
VERTEX
  8
GRID_MINOR
  6
CONTINUOUS
 62
     8
  5
2D1
 10
10.0
 20
1.9
 30
0.0
  0
SEQEND
  8
0
  5
2D2
  0
POLYLINE
  8
GRID_MINOR
  6
CONTINUOUS
 62
     8
  5
2D3
 66
     1
 10
0.0
 20
0.0
 30
0.0
1001
VDEXTRAPARAM
1071
        0
1071
        0
1071
        0
1040
1.0
1000

1000

1001
VD_XPROPERTIES
  0
VERTEX
  8
GRID_MINOR
  6
CONTINUOUS
 62
     8
  5
2D4
 10
0.0
 20
2.1
 30
0.0
  0
VERTEX
  8
GRID_MINOR
  6
CONTINUOUS
 62
     8
  5
2D5
 10
13.0
 20
2.1
 30
0.0
  0
SEQEND
  8
0
  5
2D6
  0
POLYLINE
  8
GRID_MINOR
  6
CONTINUOUS
 62
     8
  5
2D7
 66
     1
 10
0.0
 20
0.0
 30
0.0
1001
VDEXTRAPARAM
1071
        0
1071
        0
1071
        0
1040
1.0
1000

1000

1001
VD_XPROPERTIES
  0
VERTEX
  8
GRID_MINOR
  6
CONTINUOUS
 62
     8
  5
2D8
 10
0.0
 20
2.2
 30
0.0
  0
VERTEX
  8
GRID_MINOR
  6
CONTINUOUS
 62
     8
  5
2D9
 10
13.0
 20
2.2
 30
0.0
  0
SEQEND
  8
0
  5
2DA
  0
POLYLINE
  8
GRID_MINOR
  6
CONTINUOUS
 62
     8
  5
2DB
 66
     1
 10
0.0
 20
0.0
 30
0.0
1001
VDEXTRAPARAM
1071
        0
1071
        0
1071
        0
1040
1.0
1000

1000

1001
VD_XPROPERTIES
  0
VERTEX
  8
GRID_MINOR
  6
CONTINUOUS
 62
     8
  5
2DC
 10
0.0
 20
2.3
 30
0.0
  0
VERTEX
  8
GRID_MINOR
  6
CONTINUOUS
 62
     8
  5
2DD
 10
13.0
 20
2.3
 30
0.0
  0
SEQEND
  8
0
  5
2DE
  0
POLYLINE
  8
GRID_MINOR
  6
CONTINUOUS
 62
     8
  5
2DF
 66
     1
 10
0.0
 20
0.0
 30
0.0
1001
VDEXTRAPARAM
1071
        0
1071
        0
1071
        0
1040
1.0
1000

1000

1001
VD_XPROPERTIES
  0
VERTEX
  8
GRID_MINOR
  6
CONTINUOUS
 62
     8
  5
2E0
 10
0.0
 20
2.4
 30
0.0
  0
VERTEX
  8
GRID_MINOR
  6
CONTINUOUS
 62
     8
  5
2E1
 10
13.0
 20
2.4
 30
0.0
  0
SEQEND
  8
0
  5
2E2
  0
POLYLINE
  8
GRID_MINOR
  6
CONTINUOUS
 62
     8
  5
2E3
 66
     1
 10
0.0
 20
0.0
 30
0.0
1001
VDEXTRAPARAM
1071
        0
1071
        0
1071
        0
1040
1.0
1000

1000

1001
VD_XPROPERTIES
  0
VERTEX
  8
GRID_MINOR
  6
CONTINUOUS
 62
     8
  5
2E4
 10
0.0
 20
2.5
 30
0.0
  0
VERTEX
  8
GRID_MINOR
  6
CONTINUOUS
 62
     8
  5
2E5
 10
13.0
 20
2.5
 30
0.0
  0
SEQEND
  8
0
  5
2E6
  0
POLYLINE
  8
GRID_MINOR
  6
CONTINUOUS
 62
     8
  5
2E7
 66
     1
 10
0.0
 20
0.0
 30
0.0
1001
VDEXTRAPARAM
1071
        0
1071
        0
1071
        0
1040
1.0
1000

1000

1001
VD_XPROPERTIES
  0
VERTEX
  8
GRID_MINOR
  6
CONTINUOUS
 62
     8
  5
2E8
 10
0.0
 20
2.6
 30
0.0
  0
VERTEX
  8
GRID_MINOR
  6
CONTINUOUS
 62
     8
  5
2E9
 10
13.0
 20
2.6
 30
0.0
  0
SEQEND
  8
0
  5
2EA
  0
POLYLINE
  8
GRID_MINOR
  6
CONTINUOUS
 62
     8
  5
2EB
 66
     1
 10
0.0
 20
0.0
 30
0.0
1001
VDEXTRAPARAM
1071
        0
1071
        0
1071
        0
1040
1.0
1000

1000

1001
VD_XPROPERTIES
  0
VERTEX
  8
GRID_MINOR
  6
CONTINUOUS
 62
     8
  5
2EC
 10
0.0
 20
2.7
 30
0.0
  0
VERTEX
  8
GRID_MINOR
  6
CONTINUOUS
 62
     8
  5
2ED
 10
13.0
 20
2.7
 30
0.0
  0
SEQEND
  8
0
  5
2EE
  0
POLYLINE
  8
GRID_MINOR
  6
CONTINUOUS
 62
     8
  5
2EF
 66
     1
 10
0.0
 20
0.0
 30
0.0
1001
VDEXTRAPARAM
1071
        0
1071
        0
1071
        0
1040
1.0
1000

1000

1001
VD_XPROPERTIES
  0
VERTEX
  8
GRID_MINOR
  6
CONTINUOUS
 62
     8
  5
2F0
 10
0.0
 20
2.8
 30
0.0
  0
VERTEX
  8
GRID_MINOR
  6
CONTINUOUS
 62
     8
  5
2F1
 10
13.0
 20
2.8
 30
0.0
  0
SEQEND
  8
0
  5
2F2
  0
POLYLINE
  8
GRID_MINOR
  6
CONTINUOUS
 62
     8
  5
2F3
 66
     1
 10
0.0
 20
0.0
 30
0.0
1001
VDEXTRAPARAM
1071
        0
1071
        0
1071
        0
1040
1.0
1000

1000

1001
VD_XPROPERTIES
  0
VERTEX
  8
GRID_MINOR
  6
CONTINUOUS
 62
     8
  5
2F4
 10
0.0
 20
2.9
 30
0.0
  0
VERTEX
  8
GRID_MINOR
  6
CONTINUOUS
 62
     8
  5
2F5
 10
13.0
 20
2.9
 30
0.0
  0
SEQEND
  8
0
  5
2F6
  0
POLYLINE
  8
GRID_MINOR
  6
CONTINUOUS
 62
     8
  5
2F7
 66
     1
 10
0.0
 20
0.0
 30
0.0
1001
VDEXTRAPARAM
1071
        0
1071
        0
1071
        0
1040
1.0
1000

1000

1001
VD_XPROPERTIES
  0
VERTEX
  8
GRID_MINOR
  6
CONTINUOUS
 62
     8
  5
2F8
 10
0.0
 20
3.1
 30
0.0
  0
VERTEX
  8
GRID_MINOR
  6
CONTINUOUS
 62
     8
  5
2F9
 10
13.0
 20
3.1
 30
0.0
  0
SEQEND
  8
0
  5
2FA
  0
POLYLINE
  8
GRID_MINOR
  6
CONTINUOUS
 62
     8
  5
2FB
 66
     1
 10
0.0
 20
0.0
 30
0.0
1001
VDEXTRAPARAM
1071
        0
1071
        0
1071
        0
1040
1.0
1000

1000

1001
VD_XPROPERTIES
  0
VERTEX
  8
GRID_MINOR
  6
CONTINUOUS
 62
     8
  5
2FC
 10
0.0
 20
3.2
 30
0.0
  0
VERTEX
  8
GRID_MINOR
  6
CONTINUOUS
 62
     8
  5
2FD
 10
13.0
 20
3.2
 30
0.0
  0
SEQEND
  8
0
  5
2FE
  0
POLYLINE
  8
GRID_MINOR
  6
CONTINUOUS
 62
     8
  5
2FF
 66
     1
 10
0.0
 20
0.0
 30
0.0
1001
VDEXTRAPARAM
1071
        0
1071
        0
1071
        0
1040
1.0
1000

1000

1001
VD_XPROPERTIES
  0
VERTEX
  8
GRID_MINOR
  6
CONTINUOUS
 62
     8
  5
300
 10
0.0
 20
3.3
 30
0.0
  0
VERTEX
  8
GRID_MINOR
  6
CONTINUOUS
 62
     8
  5
301
 10
13.0
 20
3.3
 30
0.0
  0
SEQEND
  8
0
  5
302
  0
POLYLINE
  8
GRID_MINOR
  6
CONTINUOUS
 62
     8
  5
303
 66
     1
 10
0.0
 20
0.0
 30
0.0
1001
VDEXTRAPARAM
1071
        0
1071
        0
1071
        0
1040
1.0
1000

1000

1001
VD_XPROPERTIES
  0
VERTEX
  8
GRID_MINOR
  6
CONTINUOUS
 62
     8
  5
304
 10
0.0
 20
3.4
 30
0.0
  0
VERTEX
  8
GRID_MINOR
  6
CONTINUOUS
 62
     8
  5
305
 10
13.0
 20
3.4
 30
0.0
  0
SEQEND
  8
0
  5
306
  0
POLYLINE
  8
GRID_MINOR
  6
CONTINUOUS
 62
     8
  5
307
 66
     1
 10
0.0
 20
0.0
 30
0.0
1001
VDEXTRAPARAM
1071
        0
1071
        0
1071
        0
1040
1.0
1000

1000

1001
VD_XPROPERTIES
  0
VERTEX
  8
GRID_MINOR
  6
CONTINUOUS
 62
     8
  5
308
 10
0.0
 20
3.5
 30
0.0
  0
VERTEX
  8
GRID_MINOR
  6
CONTINUOUS
 62
     8
  5
309
 10
13.0
 20
3.5
 30
0.0
  0
SEQEND
  8
0
  5
30A
  0
POLYLINE
  8
GRID_MINOR
  6
CONTINUOUS
 62
     8
  5
30B
 66
     1
 10
0.0
 20
0.0
 30
0.0
1001
VDEXTRAPARAM
1071
        0
1071
        0
1071
        0
1040
1.0
1000

1000

1001
VD_XPROPERTIES
  0
VERTEX
  8
GRID_MINOR
  6
CONTINUOUS
 62
     8
  5
30C
 10
0.0
 20
3.6
 30
0.0
  0
VERTEX
  8
GRID_MINOR
  6
CONTINUOUS
 62
     8
  5
30D
 10
13.0
 20
3.6
 30
0.0
  0
SEQEND
  8
0
  5
30E
  0
POLYLINE
  8
GRID_MINOR
  6
CONTINUOUS
 62
     8
  5
30F
 66
     1
 10
0.0
 20
0.0
 30
0.0
1001
VDEXTRAPARAM
1071
        0
1071
        0
1071
        0
1040
1.0
1000

1000

1001
VD_XPROPERTIES
  0
VERTEX
  8
GRID_MINOR
  6
CONTINUOUS
 62
     8
  5
310
 10
0.0
 20
3.7
 30
0.0
  0
VERTEX
  8
GRID_MINOR
  6
CONTINUOUS
 62
     8
  5
311
 10
13.0
 20
3.7
 30
0.0
  0
SEQEND
  8
0
  5
312
  0
POLYLINE
  8
GRID_MINOR
  6
CONTINUOUS
 62
     8
  5
313
 66
     1
 10
0.0
 20
0.0
 30
0.0
1001
VDEXTRAPARAM
1071
        0
1071
        0
1071
        0
1040
1.0
1000

1000

1001
VD_XPROPERTIES
  0
VERTEX
  8
GRID_MINOR
  6
CONTINUOUS
 62
     8
  5
314
 10
0.0
 20
3.8
 30
0.0
  0
VERTEX
  8
GRID_MINOR
  6
CONTINUOUS
 62
     8
  5
315
 10
13.0
 20
3.8
 30
0.0
  0
SEQEND
  8
0
  5
316
  0
POLYLINE
  8
GRID_MINOR
  6
CONTINUOUS
 62
     8
  5
317
 66
     1
 10
0.0
 20
0.0
 30
0.0
1001
VDEXTRAPARAM
1071
        0
1071
        0
1071
        0
1040
1.0
1000

1000

1001
VD_XPROPERTIES
  0
VERTEX
  8
GRID_MINOR
  6
CONTINUOUS
 62
     8
  5
318
 10
0.0
 20
3.9
 30
0.0
  0
VERTEX
  8
GRID_MINOR
  6
CONTINUOUS
 62
     8
  5
319
 10
13.0
 20
3.9
 30
0.0
  0
SEQEND
  8
0
  5
31A
  0
POLYLINE
  8
GRID_MINOR
  6
CONTINUOUS
 62
     8
  5
31B
 66
     1
 10
0.0
 20
0.0
 30
0.0
1001
VDEXTRAPARAM
1071
        0
1071
        0
1071
        0
1040
1.0
1000

1000

1001
VD_XPROPERTIES
  0
VERTEX
  8
GRID_MINOR
  6
CONTINUOUS
 62
     8
  5
31C
 10
0.0
 20
4.1
 30
0.0
  0
VERTEX
  8
GRID_MINOR
  6
CONTINUOUS
 62
     8
  5
31D
 10
13.0
 20
4.1
 30
0.0
  0
SEQEND
  8
0
  5
31E
  0
POLYLINE
  8
GRID_MINOR
  6
CONTINUOUS
 62
     8
  5
31F
 66
     1
 10
0.0
 20
0.0
 30
0.0
1001
VDEXTRAPARAM
1071
        0
1071
        0
1071
        0
1040
1.0
1000

1000

1001
VD_XPROPERTIES
  0
VERTEX
  8
GRID_MINOR
  6
CONTINUOUS
 62
     8
  5
320
 10
0.0
 20
4.2
 30
0.0
  0
VERTEX
  8
GRID_MINOR
  6
CONTINUOUS
 62
     8
  5
321
 10
13.0
 20
4.2
 30
0.0
  0
SEQEND
  8
0
  5
322
  0
POLYLINE
  8
GRID_MAJOR
  5
323
 66
     1
 10
0.0
 20
0.0
 30
0.0
1001
VDEXTRAPARAM
1071
        0
1071
        0
1071
        0
1040
1.0
1000

1000

1001
VD_XPROPERTIES
  0
VERTEX
  8
GRID_MAJOR
  5
324
 10
0.0
 20
5.0
 30
0.0
  0
VERTEX
  8
GRID_MAJOR
  5
325
 10
13.0
 20
5.0
 30
0.0
  0
SEQEND
  8
0
  5
326
  0
POLYLINE
  8
GRID_MAJOR
  5
327
 66
     1
 10
0.0
 20
0.0
 30
0.0
1001
VDEXTRAPARAM
1071
        0
1071
        0
1071
        0
1040
1.0
1000

1000

1001
VD_XPROPERTIES
  0
VERTEX
  8
GRID_MAJOR
  5
328
 10
0.0
 20
6.0
 30
0.0
  0
VERTEX
  8
GRID_MAJOR
  5
329
 10
13.0
 20
6.0
 30
0.0
  0
SEQEND
  8
0
  5
32A
  0
POLYLINE
  8
GRID_MAJOR
  5
32B
 66
     1
 10
0.0
 20
0.0
 30
0.0
1001
VDEXTRAPARAM
1071
        0
1071
        0
1071
        0
1040
1.0
1000

1000

1001
VD_XPROPERTIES
  0
VERTEX
  8
GRID_MAJOR
  5
32C
 10
0.0
 20
7.0
 30
0.0
  0
VERTEX
  8
GRID_MAJOR
  5
32D
 10
13.0
 20
7.0
 30
0.0
  0
SEQEND
  8
0
  5
32E
  0
POLYLINE
  8
GRID_MINOR
  6
CONTINUOUS
 62
     8
  5
32F
 66
     1
 10
0.0
 20
0.0
 30
0.0
1001
VDEXTRAPARAM
1071
        0
1071
        0
1071
        0
1040
1.0
1000

1000

1001
VD_XPROPERTIES
  0
VERTEX
  8
GRID_MINOR
  6
CONTINUOUS
 62
     8
  5
330
 10
0.0
 20
4.3
 30
0.0
  0
VERTEX
  8
GRID_MINOR
  6
CONTINUOUS
 62
     8
  5
331
 10
13.0
 20
4.3
 30
0.0
  0
SEQEND
  8
0
  5
332
  0
POLYLINE
  8
GRID_MINOR
  6
CONTINUOUS
 62
     8
  5
333
 66
     1
 10
0.0
 20
0.0
 30
0.0
1001
VDEXTRAPARAM
1071
        0
1071
        0
1071
        0
1040
1.0
1000

1000

1001
VD_XPROPERTIES
  0
VERTEX
  8
GRID_MINOR
  6
CONTINUOUS
 62
     8
  5
334
 10
0.0
 20
4.4
 30
0.0
  0
VERTEX
  8
GRID_MINOR
  6
CONTINUOUS
 62
     8
  5
335
 10
13.0
 20
4.4
 30
0.0
  0
SEQEND
  8
0
  5
336
  0
POLYLINE
  8
GRID_MINOR
  6
CONTINUOUS
 62
     8
  5
337
 66
     1
 10
0.0
 20
0.0
 30
0.0
1001
VDEXTRAPARAM
1071
        0
1071
        0
1071
        0
1040
1.0
1000

1000

1001
VD_XPROPERTIES
  0
VERTEX
  8
GRID_MINOR
  6
CONTINUOUS
 62
     8
  5
338
 10
0.0
 20
4.5
 30
0.0
  0
VERTEX
  8
GRID_MINOR
  6
CONTINUOUS
 62
     8
  5
339
 10
13.0
 20
4.5
 30
0.0
  0
SEQEND
  8
0
  5
33A
  0
POLYLINE
  8
GRID_MINOR
  6
CONTINUOUS
 62
     8
  5
33B
 66
     1
 10
0.0
 20
0.0
 30
0.0
1001
VDEXTRAPARAM
1071
        0
1071
        0
1071
        0
1040
1.0
1000

1000

1001
VD_XPROPERTIES
  0
VERTEX
  8
GRID_MINOR
  6
CONTINUOUS
 62
     8
  5
33C
 10
0.0
 20
4.6
 30
0.0
  0
VERTEX
  8
GRID_MINOR
  6
CONTINUOUS
 62
     8
  5
33D
 10
13.0
 20
4.6
 30
0.0
  0
SEQEND
  8
0
  5
33E
  0
POLYLINE
  8
GRID_MINOR
  6
CONTINUOUS
 62
     8
  5
33F
 66
     1
 10
0.0
 20
0.0
 30
0.0
1001
VDEXTRAPARAM
1071
        0
1071
        0
1071
        0
1040
1.0
1000

1000

1001
VD_XPROPERTIES
  0
VERTEX
  8
GRID_MINOR
  6
CONTINUOUS
 62
     8
  5
340
 10
0.0
 20
4.7
 30
0.0
  0
VERTEX
  8
GRID_MINOR
  6
CONTINUOUS
 62
     8
  5
341
 10
13.0
 20
4.7
 30
0.0
  0
SEQEND
  8
0
  5
342
  0
POLYLINE
  8
GRID_MINOR
  6
CONTINUOUS
 62
     8
  5
343
 66
     1
 10
0.0
 20
0.0
 30
0.0
1001
VDEXTRAPARAM
1071
        0
1071
        0
1071
        0
1040
1.0
1000

1000

1001
VD_XPROPERTIES
  0
VERTEX
  8
GRID_MINOR
  6
CONTINUOUS
 62
     8
  5
344
 10
0.0
 20
4.8
 30
0.0
  0
VERTEX
  8
GRID_MINOR
  6
CONTINUOUS
 62
     8
  5
345
 10
13.0
 20
4.8
 30
0.0
  0
SEQEND
  8
0
  5
346
  0
POLYLINE
  8
GRID_MINOR
  6
CONTINUOUS
 62
     8
  5
347
 66
     1
 10
0.0
 20
0.0
 30
0.0
1001
VDEXTRAPARAM
1071
        0
1071
        0
1071
        0
1040
1.0
1000

1000

1001
VD_XPROPERTIES
  0
VERTEX
  8
GRID_MINOR
  6
CONTINUOUS
 62
     8
  5
348
 10
0.0
 20
4.9
 30
0.0
  0
VERTEX
  8
GRID_MINOR
  6
CONTINUOUS
 62
     8
  5
349
 10
13.0
 20
4.9
 30
0.0
  0
SEQEND
  8
0
  5
34A
  0
POLYLINE
  8
GRID_MINOR
  6
CONTINUOUS
 62
     8
  5
34B
 66
     1
 10
0.0
 20
0.0
 30
0.0
1001
VDEXTRAPARAM
1071
        0
1071
        0
1071
        0
1040
1.0
1000

1000

1001
VD_XPROPERTIES
  0
VERTEX
  8
GRID_MINOR
  6
CONTINUOUS
 62
     8
  5
34C
 10
0.0
 20
5.1
 30
0.0
  0
VERTEX
  8
GRID_MINOR
  6
CONTINUOUS
 62
     8
  5
34D
 10
13.0
 20
5.1
 30
0.0
  0
SEQEND
  8
0
  5
34E
  0
POLYLINE
  8
GRID_MINOR
  6
CONTINUOUS
 62
     8
  5
34F
 66
     1
 10
0.0
 20
0.0
 30
0.0
1001
VDEXTRAPARAM
1071
        0
1071
        0
1071
        0
1040
1.0
1000

1000

1001
VD_XPROPERTIES
  0
VERTEX
  8
GRID_MINOR
  6
CONTINUOUS
 62
     8
  5
350
 10
0.0
 20
5.2
 30
0.0
  0
VERTEX
  8
GRID_MINOR
  6
CONTINUOUS
 62
     8
  5
351
 10
13.0
 20
5.2
 30
0.0
  0
SEQEND
  8
0
  5
352
  0
POLYLINE
  8
GRID_MINOR
  6
CONTINUOUS
 62
     8
  5
353
 66
     1
 10
0.0
 20
0.0
 30
0.0
1001
VDEXTRAPARAM
1071
        0
1071
        0
1071
        0
1040
1.0
1000

1000

1001
VD_XPROPERTIES
  0
VERTEX
  8
GRID_MINOR
  6
CONTINUOUS
 62
     8
  5
354
 10
0.0
 20
5.3
 30
0.0
  0
VERTEX
  8
GRID_MINOR
  6
CONTINUOUS
 62
     8
  5
355
 10
13.0
 20
5.3
 30
0.0
  0
SEQEND
  8
0
  5
356
  0
POLYLINE
  8
GRID_MINOR
  6
CONTINUOUS
 62
     8
  5
357
 66
     1
 10
0.0
 20
0.0
 30
0.0
1001
VDEXTRAPARAM
1071
        0
1071
        0
1071
        0
1040
1.0
1000

1000

1001
VD_XPROPERTIES
  0
VERTEX
  8
GRID_MINOR
  6
CONTINUOUS
 62
     8
  5
358
 10
0.0
 20
5.4
 30
0.0
  0
VERTEX
  8
GRID_MINOR
  6
CONTINUOUS
 62
     8
  5
359
 10
13.0
 20
5.4
 30
0.0
  0
SEQEND
  8
0
  5
35A
  0
POLYLINE
  8
GRID_MINOR
  6
CONTINUOUS
 62
     8
  5
35B
 66
     1
 10
0.0
 20
0.0
 30
0.0
1001
VDEXTRAPARAM
1071
        0
1071
        0
1071
        0
1040
1.0
1000

1000

1001
VD_XPROPERTIES
  0
VERTEX
  8
GRID_MINOR
  6
CONTINUOUS
 62
     8
  5
35C
 10
0.0
 20
5.5
 30
0.0
  0
VERTEX
  8
GRID_MINOR
  6
CONTINUOUS
 62
     8
  5
35D
 10
13.0
 20
5.5
 30
0.0
  0
SEQEND
  8
0
  5
35E
  0
POLYLINE
  8
GRID_MINOR
  6
CONTINUOUS
 62
     8
  5
35F
 66
     1
 10
0.0
 20
0.0
 30
0.0
1001
VDEXTRAPARAM
1071
        0
1071
        0
1071
        0
1040
1.0
1000

1000

1001
VD_XPROPERTIES
  0
VERTEX
  8
GRID_MINOR
  6
CONTINUOUS
 62
     8
  5
360
 10
0.0
 20
5.6
 30
0.0
  0
VERTEX
  8
GRID_MINOR
  6
CONTINUOUS
 62
     8
  5
361
 10
13.0
 20
5.6
 30
0.0
  0
SEQEND
  8
0
  5
362
  0
POLYLINE
  8
GRID_MINOR
  6
CONTINUOUS
 62
     8
  5
363
 66
     1
 10
0.0
 20
0.0
 30
0.0
1001
VDEXTRAPARAM
1071
        0
1071
        0
1071
        0
1040
1.0
1000

1000

1001
VD_XPROPERTIES
  0
VERTEX
  8
GRID_MINOR
  6
CONTINUOUS
 62
     8
  5
364
 10
0.0
 20
5.7
 30
0.0
  0
VERTEX
  8
GRID_MINOR
  6
CONTINUOUS
 62
     8
  5
365
 10
13.0
 20
5.7
 30
0.0
  0
SEQEND
  8
0
  5
366
  0
POLYLINE
  8
GRID_MINOR
  6
CONTINUOUS
 62
     8
  5
367
 66
     1
 10
0.0
 20
0.0
 30
0.0
1001
VDEXTRAPARAM
1071
        0
1071
        0
1071
        0
1040
1.0
1000

1000

1001
VD_XPROPERTIES
  0
VERTEX
  8
GRID_MINOR
  6
CONTINUOUS
 62
     8
  5
368
 10
0.0
 20
5.8
 30
0.0
  0
VERTEX
  8
GRID_MINOR
  6
CONTINUOUS
 62
     8
  5
369
 10
13.0
 20
5.8
 30
0.0
  0
SEQEND
  8
0
  5
36A
  0
POLYLINE
  8
GRID_MINOR
  6
CONTINUOUS
 62
     8
  5
36B
 66
     1
 10
0.0
 20
0.0
 30
0.0
1001
VDEXTRAPARAM
1071
        0
1071
        0
1071
        0
1040
1.0
1000

1000

1001
VD_XPROPERTIES
  0
VERTEX
  8
GRID_MINOR
  6
CONTINUOUS
 62
     8
  5
36C
 10
0.0
 20
5.9
 30
0.0
  0
VERTEX
  8
GRID_MINOR
  6
CONTINUOUS
 62
     8
  5
36D
 10
13.0
 20
5.9
 30
0.0
  0
SEQEND
  8
0
  5
36E
  0
POLYLINE
  8
GRID_MINOR
  6
CONTINUOUS
 62
     8
  5
36F
 66
     1
 10
0.0
 20
0.0
 30
0.0
1001
VDEXTRAPARAM
1071
        0
1071
        0
1071
        0
1040
1.0
1000

1000

1001
VD_XPROPERTIES
  0
VERTEX
  8
GRID_MINOR
  6
CONTINUOUS
 62
     8
  5
370
 10
0.0
 20
6.1
 30
0.0
  0
VERTEX
  8
GRID_MINOR
  6
CONTINUOUS
 62
     8
  5
371
 10
13.0
 20
6.1
 30
0.0
  0
SEQEND
  8
0
  5
372
  0
POLYLINE
  8
GRID_MINOR
  6
CONTINUOUS
 62
     8
  5
373
 66
     1
 10
0.0
 20
0.0
 30
0.0
1001
VDEXTRAPARAM
1071
        0
1071
        0
1071
        0
1040
1.0
1000

1000

1001
VD_XPROPERTIES
  0
VERTEX
  8
GRID_MINOR
  6
CONTINUOUS
 62
     8
  5
374
 10
0.0
 20
6.2
 30
0.0
  0
VERTEX
  8
GRID_MINOR
  6
CONTINUOUS
 62
     8
  5
375
 10
13.0
 20
6.2
 30
0.0
  0
SEQEND
  8
0
  5
376
  0
POLYLINE
  8
GRID_MINOR
  6
CONTINUOUS
 62
     8
  5
377
 66
     1
 10
0.0
 20
0.0
 30
0.0
1001
VDEXTRAPARAM
1071
        0
1071
        0
1071
        0
1040
1.0
1000

1000

1001
VD_XPROPERTIES
  0
VERTEX
  8
GRID_MINOR
  6
CONTINUOUS
 62
     8
  5
378
 10
0.0
 20
6.3
 30
0.0
  0
VERTEX
  8
GRID_MINOR
  6
CONTINUOUS
 62
     8
  5
379
 10
13.0
 20
6.3
 30
0.0
  0
SEQEND
  8
0
  5
37A
  0
POLYLINE
  8
GRID_MINOR
  6
CONTINUOUS
 62
     8
  5
37B
 66
     1
 10
0.0
 20
0.0
 30
0.0
1001
VDEXTRAPARAM
1071
        0
1071
        0
1071
        0
1040
1.0
1000

1000

1001
VD_XPROPERTIES
  0
VERTEX
  8
GRID_MINOR
  6
CONTINUOUS
 62
     8
  5
37C
 10
0.0
 20
6.4
 30
0.0
  0
VERTEX
  8
GRID_MINOR
  6
CONTINUOUS
 62
     8
  5
37D
 10
13.0
 20
6.4
 30
0.0
  0
SEQEND
  8
0
  5
37E
  0
POLYLINE
  8
GRID_MINOR
  6
CONTINUOUS
 62
     8
  5
37F
 66
     1
 10
0.0
 20
0.0
 30
0.0
1001
VDEXTRAPARAM
1071
        0
1071
        0
1071
        0
1040
1.0
1000

1000

1001
VD_XPROPERTIES
  0
VERTEX
  8
GRID_MINOR
  6
CONTINUOUS
 62
     8
  5
380
 10
0.0
 20
6.5
 30
0.0
  0
VERTEX
  8
GRID_MINOR
  6
CONTINUOUS
 62
     8
  5
381
 10
13.0
 20
6.5
 30
0.0
  0
SEQEND
  8
0
  5
382
  0
POLYLINE
  8
GRID_MINOR
  6
CONTINUOUS
 62
     8
  5
383
 66
     1
 10
0.0
 20
0.0
 30
0.0
1001
VDEXTRAPARAM
1071
        0
1071
        0
1071
        0
1040
1.0
1000

1000

1001
VD_XPROPERTIES
  0
VERTEX
  8
GRID_MINOR
  6
CONTINUOUS
 62
     8
  5
384
 10
0.0
 20
6.6
 30
0.0
  0
VERTEX
  8
GRID_MINOR
  6
CONTINUOUS
 62
     8
  5
385
 10
13.0
 20
6.6
 30
0.0
  0
SEQEND
  8
0
  5
386
  0
POLYLINE
  8
GRID_MINOR
  6
CONTINUOUS
 62
     8
  5
387
 66
     1
 10
0.0
 20
0.0
 30
0.0
1001
VDEXTRAPARAM
1071
        0
1071
        0
1071
        0
1040
1.0
1000

1000

1001
VD_XPROPERTIES
  0
VERTEX
  8
GRID_MINOR
  6
CONTINUOUS
 62
     8
  5
388
 10
0.0
 20
6.7
 30
0.0
  0
VERTEX
  8
GRID_MINOR
  6
CONTINUOUS
 62
     8
  5
389
 10
13.0
 20
6.7
 30
0.0
  0
SEQEND
  8
0
  5
38A
  0
POLYLINE
  8
GRID_MINOR
  6
CONTINUOUS
 62
     8
  5
38B
 66
     1
 10
0.0
 20
0.0
 30
0.0
1001
VDEXTRAPARAM
1071
        0
1071
        0
1071
        0
1040
1.0
1000

1000

1001
VD_XPROPERTIES
  0
VERTEX
  8
GRID_MINOR
  6
CONTINUOUS
 62
     8
  5
38C
 10
0.0
 20
6.8
 30
0.0
  0
VERTEX
  8
GRID_MINOR
  6
CONTINUOUS
 62
     8
  5
38D
 10
13.0
 20
6.8
 30
0.0
  0
SEQEND
  8
0
  5
38E
  0
POLYLINE
  8
GRID_MINOR
  6
CONTINUOUS
 62
     8
  5
38F
 66
     1
 10
0.0
 20
0.0
 30
0.0
1001
VDEXTRAPARAM
1071
        0
1071
        0
1071
        0
1040
1.0
1000

1000

1001
VD_XPROPERTIES
  0
VERTEX
  8
GRID_MINOR
  6
CONTINUOUS
 62
     8
  5
390
 10
0.0
 20
6.9
 30
0.0
  0
VERTEX
  8
GRID_MINOR
  6
CONTINUOUS
 62
     8
  5
391
 10
13.0
 20
6.9
 30
0.0
  0
SEQEND
  8
0
  5
392
  0
POLYLINE
  8
GRID_MINOR
  6
CONTINUOUS
 62
     8
  5
393
 66
     1
 10
0.0
 20
0.0
 30
0.0
1001
VDEXTRAPARAM
1071
        0
1071
        0
1071
        0
1040
1.0
1000

1000

1001
VD_XPROPERTIES
  0
VERTEX
  8
GRID_MINOR
  6
CONTINUOUS
 62
     8
  5
394
 10
0.0
 20
7.1
 30
0.0
  0
VERTEX
  8
GRID_MINOR
  6
CONTINUOUS
 62
     8
  5
395
 10
13.0
 20
7.1
 30
0.0
  0
SEQEND
  8
0
  5
396
  0
POLYLINE
  8
GRID_MINOR
  6
CONTINUOUS
 62
     8
  5
397
 66
     1
 10
0.0
 20
0.0
 30
0.0
1001
VDEXTRAPARAM
1071
        0
1071
        0
1071
        0
1040
1.0
1000

1000

1001
VD_XPROPERTIES
  0
VERTEX
  8
GRID_MINOR
  6
CONTINUOUS
 62
     8
  5
398
 10
0.0
 20
7.2
 30
0.0
  0
VERTEX
  8
GRID_MINOR
  6
CONTINUOUS
 62
     8
  5
399
 10
13.0
 20
7.2
 30
0.0
  0
SEQEND
  8
0
  5
39A
  0
POLYLINE
  8
GRID_MINOR
  6
CONTINUOUS
 62
     8
  5
39B
 66
     1
 10
0.0
 20
0.0
 30
0.0
1001
VDEXTRAPARAM
1071
        0
1071
        0
1071
        0
1040
1.0
1000

1000

1001
VD_XPROPERTIES
  0
VERTEX
  8
GRID_MINOR
  6
CONTINUOUS
 62
     8
  5
39C
 10
0.0
 20
7.3
 30
0.0
  0
VERTEX
  8
GRID_MINOR
  6
CONTINUOUS
 62
     8
  5
39D
 10
13.0
 20
7.3
 30
0.0
  0
SEQEND
  8
0
  5
39E
  0
POLYLINE
  8
GRID_MAJOR
  6
CONTINUOUS
  5
39F
 66
     1
 10
0.0
 20
0.0
 30
0.0
1001
VDEXTRAPARAM
1071
        0
1071
        0
1071
        0
1040
1.0
1000

1000

1001
VD_XPROPERTIES
  0
VERTEX
  8
GRID_MAJOR
  6
CONTINUOUS
  5
3A0
 10
0.0
 20
8.0
 30
0.0
  0
VERTEX
  8
GRID_MAJOR
  6
CONTINUOUS
  5
3A1
 10
13.0
 20
8.0
 30
0.0
  0
SEQEND
  8
0
  5
3A2
  0
POLYLINE
  8
GRID_MAJOR
  5
3A3
 66
     1
 10
0.0
 20
0.0
 30
0.0
1001
VDEXTRAPARAM
1071
        0
1071
        0
1071
        0
1040
1.0
1000

1000

1001
VD_XPROPERTIES
  0
VERTEX
  8
GRID_MAJOR
  5
3A4
 10
0.0
 20
9.0
 30
0.0
  0
VERTEX
  8
GRID_MAJOR
  5
3A5
 10
13.0
 20
9.0
 30
0.0
  0
SEQEND
  8
0
  5
3A6
  0
POLYLINE
  8
GRID_MINOR
  6
CONTINUOUS
 62
     8
  5
3A7
 66
     1
 10
0.0
 20
0.0
 30
0.0
1001
VDEXTRAPARAM
1071
        0
1071
        0
1071
        0
1040
1.0
1000

1000

1001
VD_XPROPERTIES
  0
VERTEX
  8
GRID_MINOR
  6
CONTINUOUS
 62
     8
  5
3A8
 10
0.0
 20
7.4
 30
0.0
  0
VERTEX
  8
GRID_MINOR
  6
CONTINUOUS
 62
     8
  5
3A9
 10
13.0
 20
7.4
 30
0.0
  0
SEQEND
  8
0
  5
3AA
  0
POLYLINE
  8
GRID_MINOR
  6
CONTINUOUS
 62
     8
  5
3AB
 66
     1
 10
0.0
 20
0.0
 30
0.0
1001
VDEXTRAPARAM
1071
        0
1071
        0
1071
        0
1040
1.0
1000

1000

1001
VD_XPROPERTIES
  0
VERTEX
  8
GRID_MINOR
  6
CONTINUOUS
 62
     8
  5
3AC
 10
0.0
 20
7.5
 30
0.0
  0
VERTEX
  8
GRID_MINOR
  6
CONTINUOUS
 62
     8
  5
3AD
 10
13.0
 20
7.5
 30
0.0
  0
SEQEND
  8
0
  5
3AE
  0
POLYLINE
  8
GRID_MINOR
  6
CONTINUOUS
 62
     8
  5
3AF
 66
     1
 10
0.0
 20
0.0
 30
0.0
1001
VDEXTRAPARAM
1071
        0
1071
        0
1071
        0
1040
1.0
1000

1000

1001
VD_XPROPERTIES
  0
VERTEX
  8
GRID_MINOR
  6
CONTINUOUS
 62
     8
  5
3B0
 10
0.0
 20
7.6
 30
0.0
  0
VERTEX
  8
GRID_MINOR
  6
CONTINUOUS
 62
     8
  5
3B1
 10
13.0
 20
7.6
 30
0.0
  0
SEQEND
  8
0
  5
3B2
  0
POLYLINE
  8
GRID_MINOR
  6
CONTINUOUS
 62
     8
  5
3B3
 66
     1
 10
0.0
 20
0.0
 30
0.0
1001
VDEXTRAPARAM
1071
        0
1071
        0
1071
        0
1040
1.0
1000

1000

1001
VD_XPROPERTIES
  0
VERTEX
  8
GRID_MINOR
  6
CONTINUOUS
 62
     8
  5
3B4
 10
0.0
 20
7.7
 30
0.0
  0
VERTEX
  8
GRID_MINOR
  6
CONTINUOUS
 62
     8
  5
3B5
 10
13.0
 20
7.7
 30
0.0
  0
SEQEND
  8
0
  5
3B6
  0
POLYLINE
  8
GRID_MINOR
  6
CONTINUOUS
 62
     8
  5
3B7
 66
     1
 10
0.0
 20
0.0
 30
0.0
1001
VDEXTRAPARAM
1071
        0
1071
        0
1071
        0
1040
1.0
1000

1000

1001
VD_XPROPERTIES
  0
VERTEX
  8
GRID_MINOR
  6
CONTINUOUS
 62
     8
  5
3B8
 10
0.0
 20
7.8
 30
0.0
  0
VERTEX
  8
GRID_MINOR
  6
CONTINUOUS
 62
     8
  5
3B9
 10
13.0
 20
7.8
 30
0.0
  0
SEQEND
  8
0
  5
3BA
  0
POLYLINE
  8
GRID_MINOR
  6
CONTINUOUS
 62
     8
  5
3BB
 66
     1
 10
0.0
 20
0.0
 30
0.0
1001
VDEXTRAPARAM
1071
        0
1071
        0
1071
        0
1040
1.0
1000

1000

1001
VD_XPROPERTIES
  0
VERTEX
  8
GRID_MINOR
  6
CONTINUOUS
 62
     8
  5
3BC
 10
0.0
 20
7.9
 30
0.0
  0
VERTEX
  8
GRID_MINOR
  6
CONTINUOUS
 62
     8
  5
3BD
 10
13.0
 20
7.9
 30
0.0
  0
SEQEND
  8
0
  5
3BE
  0
POLYLINE
  8
GRID_MINOR
  6
CONTINUOUS
 62
     8
  5
3BF
 66
     1
 10
0.0
 20
0.0
 30
0.0
1001
VDEXTRAPARAM
1071
        0
1071
        0
1071
        0
1040
1.0
1000

1000

1001
VD_XPROPERTIES
  0
VERTEX
  8
GRID_MINOR
  6
CONTINUOUS
 62
     8
  5
3C0
 10
0.0
 20
8.1
 30
0.0
  0
VERTEX
  8
GRID_MINOR
  6
CONTINUOUS
 62
     8
  5
3C1
 10
13.0
 20
8.1
 30
0.0
  0
SEQEND
  8
0
  5
3C2
  0
POLYLINE
  8
GRID_MINOR
  6
CONTINUOUS
 62
     8
  5
3C3
 66
     1
 10
0.0
 20
0.0
 30
0.0
1001
VDEXTRAPARAM
1071
        0
1071
        0
1071
        0
1040
1.0
1000

1000

1001
VD_XPROPERTIES
  0
VERTEX
  8
GRID_MINOR
  6
CONTINUOUS
 62
     8
  5
3C4
 10
0.0
 20
8.2
 30
0.0
  0
VERTEX
  8
GRID_MINOR
  6
CONTINUOUS
 62
     8
  5
3C5
 10
13.0
 20
8.2
 30
0.0
  0
SEQEND
  8
0
  5
3C6
  0
POLYLINE
  8
GRID_MINOR
  6
CONTINUOUS
 62
     8
  5
3C7
 66
     1
 10
0.0
 20
0.0
 30
0.0
1001
VDEXTRAPARAM
1071
        0
1071
        0
1071
        0
1040
1.0
1000

1000

1001
VD_XPROPERTIES
  0
VERTEX
  8
GRID_MINOR
  6
CONTINUOUS
 62
     8
  5
3C8
 10
0.0
 20
8.3
 30
0.0
  0
VERTEX
  8
GRID_MINOR
  6
CONTINUOUS
 62
     8
  5
3C9
 10
13.0
 20
8.3
 30
0.0
  0
SEQEND
  8
0
  5
3CA
  0
POLYLINE
  8
GRID_MINOR
  6
CONTINUOUS
 62
     8
  5
3CB
 66
     1
 10
0.0
 20
0.0
 30
0.0
1001
VDEXTRAPARAM
1071
        0
1071
        0
1071
        0
1040
1.0
1000

1000

1001
VD_XPROPERTIES
  0
VERTEX
  8
GRID_MINOR
  6
CONTINUOUS
 62
     8
  5
3CC
 10
0.0
 20
8.4
 30
0.0
  0
VERTEX
  8
GRID_MINOR
  6
CONTINUOUS
 62
     8
  5
3CD
 10
13.0
 20
8.4
 30
0.0
  0
SEQEND
  8
0
  5
3CE
  0
POLYLINE
  8
GRID_MINOR
  6
CONTINUOUS
 62
     8
  5
3CF
 66
     1
 10
0.0
 20
0.0
 30
0.0
1001
VDEXTRAPARAM
1071
        0
1071
        0
1071
        0
1040
1.0
1000

1000

1001
VD_XPROPERTIES
  0
VERTEX
  8
GRID_MINOR
  6
CONTINUOUS
 62
     8
  5
3D0
 10
0.0
 20
8.5
 30
0.0
  0
VERTEX
  8
GRID_MINOR
  6
CONTINUOUS
 62
     8
  5
3D1
 10
13.0
 20
8.5
 30
0.0
  0
SEQEND
  8
0
  5
3D2
  0
POLYLINE
  8
GRID_MINOR
  6
CONTINUOUS
 62
     8
  5
3D3
 66
     1
 10
0.0
 20
0.0
 30
0.0
1001
VDEXTRAPARAM
1071
        0
1071
        0
1071
        0
1040
1.0
1000

1000

1001
VD_XPROPERTIES
  0
VERTEX
  8
GRID_MINOR
  6
CONTINUOUS
 62
     8
  5
3D4
 10
0.0
 20
8.6
 30
0.0
  0
VERTEX
  8
GRID_MINOR
  6
CONTINUOUS
 62
     8
  5
3D5
 10
13.0
 20
8.6
 30
0.0
  0
SEQEND
  8
0
  5
3D6
  0
POLYLINE
  8
GRID_MINOR
  6
CONTINUOUS
 62
     8
  5
3D7
 66
     1
 10
0.0
 20
0.0
 30
0.0
1001
VDEXTRAPARAM
1071
        0
1071
        0
1071
        0
1040
1.0
1000

1000

1001
VD_XPROPERTIES
  0
VERTEX
  8
GRID_MINOR
  6
CONTINUOUS
 62
     8
  5
3D8
 10
0.0
 20
8.7
 30
0.0
  0
VERTEX
  8
GRID_MINOR
  6
CONTINUOUS
 62
     8
  5
3D9
 10
13.0
 20
8.7
 30
0.0
  0
SEQEND
  8
0
  5
3DA
  0
POLYLINE
  8
GRID_MINOR
  6
CONTINUOUS
 62
     8
  5
3DB
 66
     1
 10
0.0
 20
0.0
 30
0.0
1001
VDEXTRAPARAM
1071
        0
1071
        0
1071
        0
1040
1.0
1000

1000

1001
VD_XPROPERTIES
  0
VERTEX
  8
GRID_MINOR
  6
CONTINUOUS
 62
     8
  5
3DC
 10
0.0
 20
8.8
 30
0.0
  0
VERTEX
  8
GRID_MINOR
  6
CONTINUOUS
 62
     8
  5
3DD
 10
13.0
 20
8.8
 30
0.0
  0
SEQEND
  8
0
  5
3DE
  0
POLYLINE
  8
GRID_MINOR
  6
CONTINUOUS
 62
     8
  5
3DF
 66
     1
 10
0.0
 20
0.0
 30
0.0
1001
VDEXTRAPARAM
1071
        0
1071
        0
1071
        0
1040
1.0
1000

1000

1001
VD_XPROPERTIES
  0
VERTEX
  8
GRID_MINOR
  6
CONTINUOUS
 62
     8
  5
3E0
 10
0.0
 20
8.9
 30
0.0
  0
VERTEX
  8
GRID_MINOR
  6
CONTINUOUS
 62
     8
  5
3E1
 10
13.0
 20
8.9
 30
0.0
  0
SEQEND
  8
0
  5
3E2
  0
ENDBLK
  8
0
  5
3E3
  0
BLOCK
  8
0
  5
3E4
  2
ROCK
 70
     0
 10
0.0
 20
0.0
 30
0.0
  3
ROCK
1001
VD_XPROPERTIES
  0
LINE
  8
ROCK
 62
     1
  5
3E5
 10
0.850928
 20
0.001282
 30
0.0
 11
0.880387
 21
-0.028177
 31
0.0
1001
VD_XPROPERTIES
  0
LINE
  8
ROCK
 62
     1
  5
3E6
 10
0.832085
 20
-0.017561
 30
0.0
 11
0.880387
 21
-0.065863
 31
0.0
1001
VD_XPROPERTIES
  0
LINE
  8
ROCK
 62
     1
  5
3E7
 10
0.813242
 20
-0.036404
 30
0.0
 11
0.875607
 21
-0.098768
 31
0.0
1001
VD_XPROPERTIES
  0
LINE
  8
ROCK
 62
     1
  5
3E8
 10
0.775501
 20
0.001282
 30
0.0
 11
0.713192
 21
-0.061027
 31
0.0
1001
VD_XPROPERTIES
  0
LINE
  8
ROCK
 62
     1
  5
3E9
 10
0.813187
 20
0.001282
 30
0.0
 11
0.732035
 21
-0.07987
 31
0.0
1001
VD_XPROPERTIES
  0
LINE
  8
ROCK
 62
     1
  5
3EA
 10
0.850928
 20
0.001282
 30
0.0
 11
0.750878
 21
-0.098768
 31
0.0
1001
VD_XPROPERTIES
  0
LINE
  8
ROCK
 62
     1
  5
3EB
 10
0.650828
 20
0.001282
 30
0.0
 11
0.750878
 21
-0.098768
 31
0.0
1001
VD_XPROPERTIES
  0
LINE
  8
ROCK
 62
     1
  5
3EC
 10
0.631985
 20
-0.017561
 30
0.0
 11
0.713192
 21
-0.098768
 31
0.0
1001
VD_XPROPERTIES
  0
LINE
  8
ROCK
 62
     1
  5
3ED
 10
0.613142
 20
-0.036404
 30
0.0
 11
0.675507
 21
-0.098768
 31
0.0
1001
VD_XPROPERTIES
  0
LINE
  8
ROCK
 62
     1
  5
3EE
 10
0.575401
 20
0.001282
 30
0.0
 11
0.513092
 21
-0.061027
 31
0.0
1001
VD_XPROPERTIES
  0
LINE
  8
ROCK
 62
     1
  5
3EF
 10
0.613087
 20
0.001282
 30
0.0
 11
0.531935
 21
-0.07987
 31
0.0
1001
VD_XPROPERTIES
  0
LINE
  8
ROCK
 62
     1
  5
3F0
 10
0.650828
 20
0.001282
 30
0.0
 11
0.550778
 21
-0.098768
 31
0.0
1001
VD_XPROPERTIES
  0
LINE
  8
ROCK
 62
     1
  5
3F1
 10
0.450728
 20
0.001282
 30
0.0
 11
0.550778
 21
-0.098768
 31
0.0
1001
VD_XPROPERTIES
  0
LINE
  8
ROCK
 62
     1
  5
3F2
 10
0.431885
 20
-0.017561
 30
0.0
 11
0.513092
 21
-0.098768
 31
0.0
1001
VD_XPROPERTIES
  0
LINE
  8
ROCK
 62
     1
  5
3F3
 10
0.413042
 20
-0.036404
 30
0.0
 11
0.475407
 21
-0.098768
 31
0.0
1001
VD_XPROPERTIES
  0
LINE
  8
ROCK
 62
     1
  5
3F4
 10
0.250628
 20
0.001282
 30
0.0
 11
0.350678
 21
-0.098768
 31
0.0
1001
VD_XPROPERTIES
  0
LINE
  8
ROCK
 62
     1
  5
3F5
 10
0.22984
 20
-0.015615
 30
0.0
 11
0.312992
 21
-0.098768
 31
0.0
1001
VD_XPROPERTIES
  0
LINE
  8
ROCK
 62
     1
  5
3F6
 10
0.210997
 20
-0.034458
 30
0.0
 11
0.275307
 21
-0.098768
 31
0.0
1001
VD_XPROPERTIES
  0
LINE
  8
ROCK
 62
     1
  5
3F7
 10
0.375301
 20
0.001282
 30
0.0
 11
0.312992
 21
-0.061027
 31
0.0
1001
VD_XPROPERTIES
  0
LINE
  8
ROCK
 62
     1
  5
3F8
 10
0.412987
 20
0.001282
 30
0.0
 11
0.331835
 21
-0.07987
 31
0.0
1001
VD_XPROPERTIES
  0
LINE
  8
ROCK
 62
     1
  5
3F9
 10
0.450728
 20
0.001282
 30
0.0
 11
0.350678
 21
-0.098768
 31
0.0
1001
VD_XPROPERTIES
  0
LINE
  8
ROCK
 62
     1
  5
3FA
 10
0.171311
 20
0.001282
 30
0.0
 11
0.146687
 21
-0.023342
 31
0.0
1001
VD_XPROPERTIES
  0
LINE
  8
ROCK
 62
     1
  5
3FB
 10
0.208996
 20
0.001282
 30
0.0
 11
0.146687
 21
-0.061027
 31
0.0
1001
VD_XPROPERTIES
  0
LINE
  8
ROCK
 62
     1
  5
3FC
 10
0.246737
 20
0.001282
 30
0.0
 11
0.146687
 21
-0.098768
 31
0.0
1001
VD_XPROPERTIES
  0
ENDBLK
  8
0
  5
3FD
  0
BLOCK
  8
0
  5
3FE
  2
BACKWATER
 70
     0
 10
0.0
 20
0.0
 30
0.0
  3
BACKWATER
1001
VD_XPROPERTIES
  0
POLYLINE
  8
BACKWATER
  5
3FF
 66
     1
 10
0.0
 20
0.0
 30
0.0
1001
VDEXTRAPARAM
1071
        1
1071
        0
1071
        0
1040
0.0
1000
SOLID
1000

1001
VD_XPROPERTIES
  0
VERTEX
  8
BACKWATER
  5
400
 10
0.0
 20
0.0
 30
0.0
  0
VERTEX
  8
BACKWATER
  5
401
 10
0.1
 20
0.026795
 30
0.0
  0
VERTEX
  8
BACKWATER
  5
402
 10
0.1
 20
-0.026795
 30
0.0
  0
VERTEX
  8
BACKWATER
  5
403
 10
0.0
 20
0.0
 30
0.0
  0
SEQEND
  8
0
  5
404
  0
POLYLINE
  8
BACKWATER
  5
406
 66
     1
 10
0.0
 20
0.0
 30
0.0
1001
VDEXTRAPARAM
1071
        1
1071
        0
1071
        0
1040
0.0
1000
SOLID
1000

1001
VD_XPROPERTIES
  0
VERTEX
  8
BACKWATER
  5
407
 10
1.0
 20
0.0
 30
0.0
  0
VERTEX
  8
BACKWATER
  5
408
 10
0.9
 20
0.026795
 30
0.0
  0
VERTEX
  8
BACKWATER
  5
409
 10
0.9
 20
-0.026795
 30
0.0
  0
VERTEX
  8
BACKWATER
  5
40A
 10
1.0
 20
0.0
 30
0.0
  0
SEQEND
  8
0
  5
40B
  0
POLYLINE
  8
BACKWATER
  5
40D
 66
     1
 10
0.0
 20
0.0
 30
0.0
1001
VDEXTRAPARAM
1071
        0
1071
        0
1071
        0
1040
1.0
1000

1000

1001
VD_XPROPERTIES
  0
VERTEX
  8
BACKWATER
  5
40E
 10
0.0
 20
0.0
 30
0.0
  0
VERTEX
  8
BACKWATER
  5
40F
 10
0.1
 20
0.026795
 30
0.0
  0
VERTEX
  8
BACKWATER
  5
410
 10
0.1
 20
-0.026795
 30
0.0
  0
VERTEX
  8
BACKWATER
  5
411
 10
0.0
 20
0.0
 30
0.0
  0
SEQEND
  8
0
  5
412
  0
POLYLINE
  8
BACKWATER
  5
413
 66
     1
 10
0.0
 20
0.0
 30
0.0
1001
VDEXTRAPARAM
1071
        0
1071
        0
1071
        0
1040
1.0
1000

1000

1001
VD_XPROPERTIES
  0
VERTEX
  8
BACKWATER
  5
414
 10
1.0
 20
0.0
 30
0.0
  0
VERTEX
  8
BACKWATER
  5
415
 10
0.9
 20
0.026795
 30
0.0
  0
VERTEX
  8
BACKWATER
  5
416
 10
0.9
 20
-0.026795
 30
0.0
  0
VERTEX
  8
BACKWATER
  5
417
 10
1.0
 20
0.0
 30
0.0
  0
SEQEND
  8
0
  5
418
  0
POLYLINE
  8
BACKWATER
  5
419
 66
     1
 10
0.0
 20
0.0
 30
0.0
1001
VDEXTRAPARAM
1071
        0
1071
        0
1071
        0
1040
1.0
1000

1000

1001
VD_XPROPERTIES
  0
VERTEX
  8
BACKWATER
  5
41A
 10
0.0
 20
0.0
 30
0.0
  0
VERTEX
  8
BACKWATER
  5
41B
 10
1.0
 20
0.0
 30
0.0
  0
VERTEX
  8
BACKWATER
  5
41C
 10
1.0
 20
0.0
 30
0.0
  0
VERTEX
  8
BACKWATER
  5
41D
 10
1.0
 20
0.0
 30
0.0
  0
SEQEND
  8
0
  5
41E
  0
POLYLINE
  8
BACKWATER
  5
41F
 66
     1
 10
0.0
 20
0.0
 30
0.0
1001
VDEXTRAPARAM
1071
        0
1071
        0
1071
        0
1040
1.0
1000

1000

1001
VD_XPROPERTIES
  0
VERTEX
  8
BACKWATER
  5
420
 10
0.0
 20
0.15
 30
0.0
  0
VERTEX
  8
BACKWATER
  5
421
 10
0.0
 20
-0.15
 30
0.0
  0
VERTEX
  8
BACKWATER
  5
422
 10
0.0
 20
-0.15
 30
0.0
  0
VERTEX
  8
BACKWATER
  5
423
 10
0.0
 20
-0.15
 30
0.0
  0
SEQEND
  8
0
  5
424
  0
POLYLINE
  8
BACKWATER
  5
425
 66
     1
 10
0.0
 20
0.0
 30
0.0
1001
VDEXTRAPARAM
1071
        0
1071
        0
1071
        0
1040
1.0
1000

1000

1001
VD_XPROPERTIES
  0
VERTEX
  8
BACKWATER
  5
426
 10
1.0
 20
0.15
 30
0.0
  0
VERTEX
  8
BACKWATER
  5
427
 10
1.0
 20
-0.15
 30
0.0
  0
VERTEX
  8
BACKWATER
  5
428
 10
1.0
 20
-0.15
 30
0.0
  0
VERTEX
  8
BACKWATER
  5
429
 10
1.0
 20
-0.15
 30
0.0
  0
SEQEND
  8
0
  5
42A
  0
ENDBLK
  8
0
  5
42B
  0
BLOCK
  8
0
  5
42C
  2
LEADER
 70
     0
 10
0.0
 20
0.0
 30
0.0
  3
LEADER
1001
VD_XPROPERTIES
  0
POLYLINE
  8
LEADER
  5
42D
 66
     1
 10
0.0
 20
0.0
 30
0.0
1001
VDEXTRAPARAM
1071
        1
1071
        0
1071
        0
1040
0.0
1000
SOLID
1000

1001
VD_XPROPERTIES
  0
VERTEX
  8
LEADER
  5
42E
 10
0.0
 20
0.0
 30
0.0
  0
VERTEX
  8
LEADER
  5
42F
 10
0.05
 20
0.013398
 30
0.0
  0
VERTEX
  8
LEADER
  5
430
 10
0.05
 20
-0.013398
 30
0.0
  0
VERTEX
  8
LEADER
  5
431
 10
0.0
 20
0.0
 30
0.0
  0
SEQEND
  8
0
  5
432
  0
POLYLINE
  8
LEADER
  5
434
 66
     1
 10
0.0
 20
0.0
 30
0.0
1001
VDEXTRAPARAM
1071
        0
1071
        0
1071
        0
1040
1.0
1000

1000

1001
VD_XPROPERTIES
  0
VERTEX
  8
LEADER
  5
435
 10
0.0
 20
0.0
 30
0.0
  0
VERTEX
  8
LEADER
  5
436
 10
0.05
 20
0.013398
 30
0.0
  0
VERTEX
  8
LEADER
  5
437
 10
0.05
 20
-0.013398
 30
0.0
  0
VERTEX
  8
LEADER
  5
438
 10
0.0
 20
0.0
 30
0.0
  0
SEQEND
  8
0
  5
439
  0
POLYLINE
  8
LEADER
  5
43A
 66
     1
 10
0.0
 20
0.0
 30
0.0
1001
VDEXTRAPARAM
1071
        0
1071
        0
1071
        0
1040
1.0
1000

1000

1001
VD_XPROPERTIES
  0
VERTEX
  8
LEADER
  5
43B
 10
0.0
 20
0.0
 30
0.0
  0
VERTEX
  8
LEADER
  5
43C
 10
1.0
 20
0.0
 30
0.0
  0
VERTEX
  8
LEADER
  5
43D
 10
1.0
 20
0.0
 30
0.0
  0
VERTEX
  8
LEADER
  5
43E
 10
1.0
 20
0.0
 30
0.0
  0
SEQEND
  8
0
  5
43F
  0
ENDBLK
  8
0
  5
440
  0
BLOCK
  8
0
  5
441
  2
DAM
 70
     0
 10
0.0
 20
0.0
 30
0.0
  3
DAM
1001
VD_XPROPERTIES
  0
POLYLINE
  8
DAM
 62
     5
  5
442
 66
     1
 10
0.0
 20
0.0
 30
0.0
 40
20.0
 41
20.0
1001
VDEXTRAPARAM
1071
        0
1071
        0
1071
        0
1040
1.0
1000

1000

1001
VD_XPROPERTIES
  0
VERTEX
  8
DAM
 62
     5
  5
443
 10
0.0
 20
0.0
 30
0.0
  0
VERTEX
  8
DAM
 62
     5
  5
444
 10
1.0
 20
1.0
 30
0.0
  0
SEQEND
  8
0
  5
445
  0
ENDBLK
  8
0
  5
446
  0
BLOCK
  8
0
  5
447
  2
CULVERT
 70
     0
 10
0.0
 20
0.0
 30
0.0
  3
CULVERT
1001
VD_XPROPERTIES
  0
POLYLINE
  8
CULVERT
 62
     1
  5
448
 66
     1
 10
0.0
 20
0.0
 30
0.0
 40
5.0
 41
5.0
1001
VDEXTRAPARAM
1071
        0
1071
        0
1071
        0
1040
1.0
1000

1000

1001
VD_XPROPERTIES
  0
VERTEX
  8
CULVERT
 62
     1
  5
449
 10
0.0
 20
0.0
 30
0.0
  0
VERTEX
  8
CULVERT
 62
     1
  5
44A
 10
1.0
 20
1.0
 30
0.0
  0
SEQEND
  8
0
  5
44B
  0
ENDBLK
  8
0
  5
44C
  0
BLOCK
  8
0
  5
44D
  2
XSEC
 70
     0
 10
0.0
 20
0.0
 30
0.0
  3
XSEC
1001
VD_XPROPERTIES
  0
POLYLINE
  8
XSEC
  5
44E
 66
     1
 10
0.0
 20
0.0
 30
0.0
1001
VDEXTRAPARAM
1071
        0
1071
        0
1071
        0
1040
1.0
1000

1000

1001
VD_XPROPERTIES
  0
VERTEX
  8
XSEC
  5
44F
 10
-0.129917
 20
0.074558
 30
0.0
  0
VERTEX
  8
XSEC
  5
450
 10
-0.129917
 20
-0.075442
 30
0.0
  0
VERTEX
  8
XSEC
  5
451
 10
0.0
 20
-0.150442
 30
0.0
  0
VERTEX
  8
XSEC
  5
452
 10
0.129917
 20
-0.075442
 30
0.0
  0
VERTEX
  8
XSEC
  5
453
 10
0.129917
 20
0.074558
 30
0.0
  0
VERTEX
  8
XSEC
  5
454
 10
0.0
 20
0.149558
 30
0.0
  0
VERTEX
  8
XSEC
  5
455
 10
-0.129917
 20
0.074558
 30
0.0
  0
VERTEX
  8
XSEC
  5
456
 10
-0.129917
 20
0.074558
 30
0.0
  0
SEQEND
  8
0
  5
457
  0
LINE
  8
XSEC
  5
458
 10
0.0
 20
0.149558
 30
0.0
 11
0.0
 21
0.207141
 31
0.0
1001
VD_XPROPERTIES
  0
ENDBLK
  8
0
  5
459
  0
BLOCK
  8
0
  5
45A
  2
V_BASE
 70
     0
 10
0.0
 20
0.0
 30
0.0
  3
V_BASE
1001
VD_XPROPERTIES
  0
LINE
  8
XSEC_LINE
  5
45B
 10
0.0
 20
0.0
 30
0.0
 11
0.0
 21
1.0
 31
0.0
1001
VD_XPROPERTIES
  0
ENDBLK
  8
0
  5
45C
  0
BLOCK
  8
0
  5
45D
  2
ADO102
 70
     0
 10
-2200.0
 20
0.0
 30
0.0
  3
ADO102
1001
VD_XPROPERTIES
  0
ENDBLK
  8
0
  5
45E
  0
ENDSEC
  0
SECTION
  2
ENTITIES
  0
INSERT
  8
GRIDS
  5
45F
  2
BORDER
 10
-500.0
 20
1100.0
 30
0.0
 41
500.0
 42
500.0
1001
VD_XPROPERTIES
  0
TEXT
  8
TEXT
  5
460
 10
-670.0
 20
1077.5
 30
0.0
 40
60.0
  1
 3770
1001
VD_XPROPERTIES
  0
TEXT
  8
TEXT
  5
461
 10
-670.0
 20
1577.5
 30
0.0
 40
60.0
  1
 3780
1001
VD_XPROPERTIES
  0
TEXT
  8
TEXT
  5
462
 10
-670.0
 20
2077.5
 30
0.0
 40
60.0
  1
 3790
1001
VD_XPROPERTIES
  0
TEXT
  8
TEXT
  5
463
 10
6055.0
 20
2077.5
 30
0.0
 40
60.0
  1
 3790
1001
VD_XPROPERTIES
  0
TEXT
  8
TEXT
  5
464
 10
-670.0
 20
2577.5
 30
0.0
 40
60.0
  1
 3800
1001
VD_XPROPERTIES
  0
TEXT
  8
TEXT
  5
465
 10
6055.0
 20
2577.5
 30
0.0
 40
60.0
  1
 3800
1001
VD_XPROPERTIES
  0
TEXT
  8
TEXT
  5
466
 10
-670.0
 20
3077.5
 30
0.0
 40
60.0
  1
 3810
1001
VD_XPROPERTIES
  0
TEXT
  8
TEXT
  5
467
 10
6055.0
 20
3077.5
 30
0.0
 40
60.0
  1
 3810
1001
VD_XPROPERTIES
  0
TEXT
  8
TEXT
  5
468
 10
-670.0
 20
3577.5
 30
0.0
 40
60.0
  1
 3820
1001
VD_XPROPERTIES
  0
TEXT
  8
TEXT
  5
469
 10
6055.0
 20
3577.5
 30
0.0
 40
60.0
  1
 3820
1001
VD_XPROPERTIES
  0
TEXT
  8
TEXT
  5
46A
 10
-670.0
 20
4077.5
 30
0.0
 40
60.0
  1
 3830
1001
VD_XPROPERTIES
  0
TEXT
  8
TEXT
  5
46B
 10
6055.0
 20
4077.5
 30
0.0
 40
60.0
  1
 3830
1001
VD_XPROPERTIES
  0
TEXT
  8
TEXT
  5
46C
 10
-670.0
 20
4577.5
 30
0.0
 40
60.0
  1
 3840
1001
VD_XPROPERTIES
  0
TEXT
  8
TEXT
  5
46D
 10
6055.0
 20
4577.5
 30
0.0
 40
60.0
  1
 3840
1001
VD_XPROPERTIES
  0
TEXT
  8
TEXT
  5
46E
 10
-670.0
 20
5077.5
 30
0.0
 40
60.0
  1
 3850
1001
VD_XPROPERTIES
  0
TEXT
  8
TEXT
  5
46F
 10
6055.0
 20
5077.5
 30
0.0
 40
60.0
  1
 3850
1001
VD_XPROPERTIES
  0
TEXT
  8
TEXT
  5
470
 10
-670.0
 20
5577.5
 30
0.0
 40
60.0
  1
 3860
1001
VD_XPROPERTIES
  0
TEXT
  8
TEXT
  5
471
 10
6055.0
 20
5577.5
 30
0.0
 40
60.0
  1
 3860
1001
VD_XPROPERTIES
  0
TEXT
  8
TEXT
  5
472
 10
5.5
 20
1000.0
 30
6.778406E+120
 40
60.0
  1
0
 72
     1
 11
5.5
 21
1000.0
 31
6.778406E+120
1001
VD_XPROPERTIES
  0
TEXT
  8
TEXT
  5
473
 10
504.5
 20
1000.0
 30
6.778406E+120
 40
60.0
  1
500
 72
     1
 11
504.5
 21
1000.0
 31
6.778406E+120
1001
VD_XPROPERTIES
  0
TEXT
  8
TEXT
  5
474
 10
1004.0
 20
1000.0
 30
6.778406E+120
 40
60.0
  1
1000
 72
     1
 11
1004.0
 21
1000.0
 31
6.778406E+120
1001
VD_XPROPERTIES
  0
TEXT
  8
TEXT
  5
475
 10
1504.0
 20
1000.0
 30
6.778406E+120
 40
60.0
  1
1500
 72
     1
 11
1504.0
 21
1000.0
 31
6.778406E+120
1001
VD_XPROPERTIES
  0
TEXT
  8
TEXT
  5
476
 10
2004.0
 20
1000.0
 30
6.778406E+120
 40
60.0
  1
2000
 72
     1
 11
2004.0
 21
1000.0
 31
6.778406E+120
1001
VD_XPROPERTIES
  0
TEXT
  8
TEXT
  5
477
 10
2504.0
 20
1000.0
 30
6.778406E+120
 40
60.0
  1
2500
 72
     1
 11
2504.0
 21
1000.0
 31
6.778406E+120
1001
VD_XPROPERTIES
  0
TEXT
  8
TEXT
  5
478
 10
3004.0
 20
1000.0
 30
6.778406E+120
 40
60.0
  1
3000
 72
     1
 11
3004.0
 21
1000.0
 31
6.778406E+120
1001
VD_XPROPERTIES
  0
TEXT
  8
TEXT
  5
479
 10
3504.0
 20
1000.0
 30
6.778406E+120
 40
60.0
  1
3500
 72
     1
 11
3504.0
 21
1000.0
 31
6.778406E+120
1001
VD_XPROPERTIES
  0
TEXT
  8
TEXT
  5
47A
 10
4004.0
 20
1000.0
 30
6.778406E+120
 40
60.0
  1
4000
 72
     1
 11
4004.0
 21
1000.0
 31
6.778406E+120
1001
VD_XPROPERTIES
  0
TEXT
  8
TEXT
  5
47B
 10
4504.0
 20
1000.0
 30
6.778406E+120
 40
60.0
  1
4500
 72
     1
 11
4504.0
 21
1000.0
 31
6.778406E+120
1001
VD_XPROPERTIES
  0
TEXT
  8
TEXT
  5
47C
 10
5004.0
 20
1000.0
 30
6.778406E+120
 40
60.0
  1
5000
 72
     1
 11
5004.0
 21
1000.0
 31
6.778406E+120
1001
VD_XPROPERTIES
  0
TEXT
  8
TEXT
  5
47D
 10
5504.0
 20
1000.0
 30
6.778406E+120
 40
60.0
  1
5500
 72
     1
 11
5504.0
 21
1000.0
 31
6.778406E+120
1001
VD_XPROPERTIES
  0
TEXT
  8
TEXT
  5
47E
 10
6004.0
 20
1000.0
 30
6.778406E+120
 40
60.0
  1
6000
 72
     1
 11
6004.0
 21
1000.0
 31
6.778406E+120
1001
VD_XPROPERTIES
  0
TEXT
  8
TEXT
  5
47F
 10
-780.0
 20
3350.0
 30
6.778406E+120
 40
60.0
  1
ELEVATION IN FEET (NGVD)
 50
90.0
 72
     1
 11
-780.0
 21
3350.0
 31
6.778406E+120
1001
VD_XPROPERTIES
  0
TEXT
  8
TEXT
  5
480
 10
2750.0
 20
825.0
 30
6.778406E+120
 40
60.0
  1
STREAM DISTANCE IN FEET ABOVE CONFLUENCE WITH ICE HOUSE CANYON
 72
     1
 11
2750.0
 21
825.0
 31
6.778406E+120
1001
VD_XPROPERTIES
  0
TEXT
  8
TEXT
  5
481
 10
6375.0
 20
1862.5
 30
6.778406E+120
 40
80.0
  1
FEDERAL EMERGENCY MANAGEMENT AGENCY
 50
90.0
 72
     1
 11
6375.0
 21
1862.5
 31
6.778406E+120
1001
VD_XPROPERTIES
  0
TEXT
  8
TEXT
  5
482
 10
6550.0
 20
1862.5
 30
6.778406E+120
 40
100.0
  1
GILA COUNTY, AZ
 50
90.0
 72
     1
 11
6550.0
 21
1862.5
 31
6.778406E+120
1001
VD_XPROPERTIES
  0
TEXT
  8
TEXT
  5
483
 10
6675.0
 20
1862.5
 30
6.778406E+120
 40
70.0
  1
(UNINCORPORATED AREAS)
 50
90.0
 72
     1
 11
6675.0
 21
1862.5
 31
6.778406E+120
1001
VD_XPROPERTIES
  0
TEXT
  8
TEXT
  5
484
 10
6420.0
 20
4262.5
 30
6.778406E+120
 40
100.0
  1
FLOOD PROFILES
 50
90.0
 72
     1
 11
6420.0
 21
4262.5
 31
6.778406E+120
1001
VD_XPROPERTIES
  0
TEXT
  8
TEXT
  5
485
 10
6650.0
 20
4262.5
 30
6.778406E+120
 40
80.0
  1
KELLNER CANYON
 50
90.0
 72
     1
 11
6650.0
 21
4262.5
 31
6.778406E+120
1001
VD_XPROPERTIES
  0
TEXT
  8
TEXT
  5
486
 10
6500.0
 20
775.0
 30
6.778406E+120
 40
100.0
  1
27P
 72
     1
 11
6500.0
 21
775.0
 31
6.778406E+120
1001
VD_XPROPERTIES
  0
POLYLINE
  8
WS100
 62
     1
  5
487
 66
     1
 10
0.0
 20
0.0
 30
0.0
1001
VDEXTRAPARAM
1071
        0
1071
        0
1071
        0
1040
1.0
1000

1000

1001
VD_XPROPERTIES
  0
VERTEX
  8
WS100
 62
     1
  5
488
 10
0.0
 20
1664.001
 30
0.0
  0
VERTEX
  8
WS100
 62
     1
  5
489
 10
221.1
 20
1944.995
 30
0.0
  0
VERTEX
  8
WS100
 62
     1
  5
48A
 10
221.1
 20
1944.995
 30
0.0
  0
VERTEX
  8
WS100
 62
     1
  5
48B
 10
754.0
 20
2667.505
 30
0.0
  0
VERTEX
  8
WS100
 62
     1
  5
48C
 10
754.0
 20
2667.505
 30
0.0
  0
VERTEX
  8
WS100
 62
     1
  5
48D
 10
1231.4
 20
3243.005
 30
0.0
  0
VERTEX
  8
WS100
 62
     1
  5
48E
 10
1231.4
 20
3243.005
 30
0.0
  0
VERTEX
  8
WS100
 62
     1
  5
48F
 10
1745.1
 20
4026.001
 30
0.0
  0
VERTEX
  8
WS100
 62
     1
  5
490
 10
1745.1
 20
4026.001
 30
0.0
  0
VERTEX
  8
WS100
 62
     1
  5
491
 10
2265.0
 20
4739.001
 30
0.0
  0
VERTEX
  8
WS100
 62
     1
  5
492
 10
2265.0
 20
4739.001
 30
0.0
  0
VERTEX
  8
WS100
 62
     1
  5
493
 10
2466.4
 20
4973.499
 30
0.0
  0
VERTEX
  8
WS100
 62
     1
  5
494
 10
2466.4
 20
4973.499
 30
0.0
  0
VERTEX
  8
WS100
 62
     1
  5
495
 10
2471.4
 20
5195.996
 30
0.0
  0
VERTEX
  8
WS100
 62
     1
  5
496
 10
2471.4
 20
5195.996
 30
0.0
  0
VERTEX
  8
WS100
 62
     1
  5
497
 10
2502.4
 20
5195.996
 30
0.0
  0
VERTEX
  8
WS100
 62
     1
  5
498
 10
2502.4
 20
5195.996
 30
0.0
  0
VERTEX
  8
WS100
 62
     1
  5
499
 10
2502.4
 20
5195.996
 30
0.0
  0
VERTEX
  8
WS100
 62
     1
  5
49A
 10
2502.4
 20
5195.996
 30
0.0
  0
VERTEX
  8
WS100
 62
     1
  5
49B
 10
2609.6
 20
5243.005
 30
0.0
  0
VERTEX
  8
WS100
 62
     1
  5
49C
 10
2609.6
 20
5243.005
 30
0.0
  0
VERTEX
  8
WS100
 62
     1
  5
49D
 10
2728.9
 20
5353.503
 30
0.0
  0
VERTEX
  8
WS100
 62
     1
  5
49E
 10
2728.9
 20
5353.503
 30
0.0
  0
SEQEND
  8
0
  5
49F
  0
INSERT
  8
ROCK
 62
     1
  5
4A0
  2
ROCK
 10
221.1
 20
1614.001
 30
0.0
 41
500.0
 42
500.0
 50
48.76587
1001
VD_XPROPERTIES
  0
INSERT
  8
ROCK
 62
     1
  5
4A1
  2
ROCK
 10
2192.60853
 20
4137.168571
 30
0.0
 41
500.0
 42
500.0
 50
52.648281
1001
VD_XPROPERTIES
  0
INSERT
  8
ROCK
 62
     1
  5
4A2
  2
ROCK
 10
1231.4
 20
2884.998
 30
0.0
 41
500.0
 42
500.0
 50
54.49347
1001
VD_XPROPERTIES
  0
POLYLINE
  8
STREAM
 62
     1
  5
4A3
 66
     1
 10
0.0
 20
0.0
 30
0.0
1001
VDEXTRAPARAM
1071
        0
1071
        0
1071
        0
1040
1.0
1000

1000

1001
VD_XPROPERTIES
  0
VERTEX
  8
STREAM
 62
     1
  5
4A4
 10
0.0
 20
1209.998
 30
0.0
  0
VERTEX
  8
STREAM
 62
     1
  5
4A5
 10
221.1
 20
1614.001
 30
0.0
  0
VERTEX
  8
STREAM
 62
     1
  5
4A6
 10
221.1
 20
1614.001
 30
0.0
  0
VERTEX
  8
STREAM
 62
     1
  5
4A7
 10
754.0
 20
2221.997
 30
0.0
  0
VERTEX
  8
STREAM
 62
     1
  5
4A8
 10
754.0
 20
2221.997
 30
0.0
  0
VERTEX
  8
STREAM
 62
     1
  5
4A9
 10
1231.4
 20
2884.998
 30
0.0
  0
VERTEX
  8
STREAM
 62
     1
  5
4AA
 10
1231.4
 20
2884.998
 30
0.0
  0
VERTEX
  8
STREAM
 62
     1
  5
4AB
 10
1745.1
 20
3605.005
 30
0.0
  0
VERTEX
  8
STREAM
 62
     1
  5
4AC
 10
1745.1
 20
3605.005
 30
0.0
  0
VERTEX
  8
STREAM
 62
     1
  5
4AD
 10
2265.0
 20
4243.994
 30
0.0
  0
VERTEX
  8
STREAM
 62
     1
  5
4AE
 10
2265.0
 20
4243.994
 30
0.0
  0
VERTEX
  8
STREAM
 62
     1
  5
4AF
 10
2466.4
 20
4505.005
 30
0.0
  0
VERTEX
  8
STREAM
 62
     1
  5
4B0
 10
2466.4
 20
4505.005
 30
0.0
  0
VERTEX
  8
STREAM
 62
     1
  5
4B1
 10
2471.4
 20
4515.002
 30
0.0
  0
VERTEX
  8
STREAM
 62
     1
  5
4B2
 10
2471.4
 20
4515.002
 30
0.0
  0
VERTEX
  8
STREAM
 62
     1
  5
4B3
 10
2502.4
 20
4590.002
 30
0.0
  0
VERTEX
  8
STREAM
 62
     1
  5
4B4
 10
2502.4
 20
4590.002
 30
0.0
  0
VERTEX
  8
STREAM
 62
     1
  5
4B5
 10
2502.4
 20
4591.504
 30
0.0
  0
VERTEX
  8
STREAM
 62
     1
  5
4B6
 10
2502.4
 20
4591.504
 30
0.0
  0
VERTEX
  8
STREAM
 62
     1
  5
4B7
 10
2609.6
 20
4826.001
 30
0.0
  0
VERTEX
  8
STREAM
 62
     1
  5
4B8
 10
2609.6
 20
4826.001
 30
0.0
  0
VERTEX
  8
STREAM
 62
     1
  5
4B9
 10
2728.9
 20
4875.0
 30
0.0
  0
VERTEX
  8
STREAM
 62
     1
  5
4BA
 10
2728.9
 20
4875.0
 30
0.0
  0
SEQEND
  8
0
  5
4BB
  0
INSERT
  8
XSEC
 62
     3
  5
4BC
  2
XSEC
 10
221.1
 20
1275.0
 30
0.0
 41
500.0
 42
500.0
1001
VD_XPROPERTIES
  0
TEXT
  8
TEXT
  5
4BD
 10
221.1
 20
1275.0
 30
6.778406E+120
 40
50.0
  1
A
 72
     1
 11
221.1
 21
1275.0
 31
6.778406E+120
 73
     2
1001
VD_XPROPERTIES
  0
INSERT
  8
XSEC
 62
     3
  5
4BE
  2
XSEC
 10
1745.1
 20
1275.0
 30
0.0
 41
500.0
 42
500.0
1001
VD_XPROPERTIES
  0
TEXT
  8
TEXT
  5
4BF
 10
1745.1
 20
1275.0
 30
6.778406E+120
 40
50.0
  1
B
 72
     1
 11
1745.1
 21
1275.0
 31
6.778406E+120
 73
     2
1001
VD_XPROPERTIES
  0
INSERT
  8
XSEC
 62
     3
  5
4C0
  2
XSEC
 10
2728.9
 20
1275.0
 30
0.0
 41
500.0
 42
500.0
1001
VD_XPROPERTIES
  0
TEXT
  8
TEXT
  5
4C1
 10
2728.9
 20
1275.0
 30
6.778406E+120
 40
50.0
  1
C
 72
     1
 11
2728.9
 21
1275.0
 31
6.778406E+120
 73
     2
1001
VD_XPROPERTIES
  0
POLYLINE
  8
CULVERT
  5
4C2
 66
     1
 10
0.0
 20
0.0
 30
0.0
1001
VDEXTRAPARAM
1071
       11
1071
        0
1071
      255
1040
50.0
1000
CULVERT
1000
 
1001
VD_XPROPERTIES
  0
VERTEX
  8
CULVERT
  5
4C3
 10
2471.4
 20
4815.002
 30
0.0
  0
VERTEX
  8
CULVERT
  5
4C4
 10
2471.4
 20
5123.56
 30
0.0
  0
VERTEX
  8
CULVERT
  5
4C5
 10
2502.4
 20
5109.937
 30
0.0
  0
VERTEX
  8
CULVERT
  5
4C6
 10
2502.4
 20
4890.002
 30
0.0
  0
VERTEX
  8
CULVERT
  5
4C7
 10
2471.4
 20
4815.002
 30
0.0
  0
SEQEND
  8
0
  5
4C8
  0
POLYLINE
  8
XSECTEXTLINE
  5
4CA
 66
     1
 10
0.0
 20
0.0
 30
0.0
1001
VDEXTRAPARAM
1071
        0
1071
        0
1071
        0
1040
1.0
1000

1000

1001
VD_XPROPERTIES
  0
VERTEX
  8
XSECTEXTLINE
  5
4CB
 10
0.0
 20
4600.0
 30
0.0
  0
VERTEX
  8
XSECTEXTLINE
  5
4CC
 10
0.0
 20
5100.0
 30
0.0
  0
VERTEX
  8
XSECTEXTLINE
  5
4CD
 10
0.0
 20
5100.0
 30
0.0
  0
SEQEND
  8
0
  5
4CE
  0
TEXT
  8
TEXT
  5
4CF
 10
-25.0
 20
4850.0
 30
6.778406E+120
 40
60.0
  1
CONFLUENCE WITH ICE HOUSE CANYON
 50
90.0
 72
     1
 11
-25.0
 21
4850.0
 31
6.778406E+120
1001
VD_XPROPERTIES
  0
POLYLINE
  8
XSECTEXTLINE
  5
4D0
 66
     1
 10
0.0
 20
0.0
 30
0.0
1001
VDEXTRAPARAM
1071
        0
1071
        0
1071
        0
1040
1.0
1000

1000

1001
VD_XPROPERTIES
  0
VERTEX
  8
XSECTEXTLINE
  5
4D1
 10
2502.4
 20
3600.561901
 30
0.0
  0
VERTEX
  8
XSECTEXTLINE
  5
4D2
 10
2502.4
 20
4100.561901
 30
0.0
  0
VERTEX
  8
XSECTEXTLINE
  5
4D3
 10
2502.4
 20
4100.561901
 30
0.0
  0
SEQEND
  8
0
  5
4D4
  0
TEXT
  8
TEXT
  5
4D5
 10
2477.4
 20
3850.561901
 30
6.778406E+120
 40
60.0
  1
KELLNER CANYON ROAD
 50
90.0
 72
     1
 11
2477.4
 21
3850.561901
 31
6.778406E+120
1001
VD_XPROPERTIES
  0
POLYLINE
  8
XSECTEXTLINE
  5
4D6
 66
     1
 10
0.0
 20
0.0
 30
0.0
1001
VDEXTRAPARAM
1071
        0
1071
        0
1071
        0
1040
1.0
1000

1000

1001
VD_XPROPERTIES
  0
VERTEX
  8
XSECTEXTLINE
  5
4D7
 10
2728.9
 20
3600.561901
 30
0.0
  0
VERTEX
  8
XSECTEXTLINE
  5
4D8
 10
2728.9
 20
4100.561901
 30
0.0
  0
VERTEX
  8
XSECTEXTLINE
  5
4D9
 10
2728.9
 20
4100.561901
 30
0.0
  0
SEQEND
  8
0
  5
4DA
  0
TEXT
  8
TEXT
  5
4DB
 10
2703.9
 20
3850.561901
 30
6.778406E+120
 40
60.0
  1
LIMIT OF STUDY
 50
90.0
 72
     1
 11
2703.9
 21
3850.561901
 31
6.778406E+120
1001
VD_XPROPERTIES
  0
POLYLINE
  8
LEGEND_BOX
  5
4DC
 66
     1
 10
0.0
 20
0.0
 30
0.0
1001
VDEXTRAPARAM
1071
        0
1071
        0
1071
        0
1040
1.0
1000

1000

1001
VD_XPROPERTIES
  0
VERTEX
  8
LEGEND_BOX
  5
4DD
 10
4525.0
 20
2075.0
 30
0.0
  0
VERTEX
  8
LEGEND_BOX
  5
4DE
 10
4525.0
 20
1125.0
 30
0.0
  0
VERTEX
  8
LEGEND_BOX
  5
4DF
 10
5975.0
 20
1125.0
 30
0.0
  0
VERTEX
  8
LEGEND_BOX
  5
4E0
 10
5975.0
 20
2075.0
 30
0.0
  0
VERTEX
  8
LEGEND_BOX
  5
4E1
 10
4525.0
 20
2075.0
 30
0.0
  0
VERTEX
  8
LEGEND_BOX
  5
4E2
 10
4525.0
 20
2075.0
 30
0.0
  0
SEQEND
  8
0
  5
4E3
  0
TEXT
  8
TEXT
  5
4E4
 10
5275.0
 20
1975.0
 30
6.778406E+120
 40
50.0
  1
LEGEND
 72
     1
 11
5275.0
 21
1975.0
 31
6.778406E+120
1001
VD_XPROPERTIES
  0
POLYLINE
  8
WS500
 62
     3
  5
4E5
 66
     1
 10
0.0
 20
0.0
 30
0.0
1001
VDEXTRAPARAM
1071
        0
1071
        0
1071
        0
1040
1.0
1000

1000

1001
VD_XPROPERTIES
  0
VERTEX
  8
WS500
 62
     3
  5
4E6
 10
4650.0
 20
1900.0
 30
0.0
  0
VERTEX
  8
WS500
 62
     3
  5
4E7
 10
5200.0
 20
1900.0
 30
0.0
  0
VERTEX
  8
WS500
 62
     3
  5
4E8
 10
5200.0
 20
1900.0
 30
0.0
  0
SEQEND
  8
0
  5
4E9
  0
TEXT
  8
TEXT
  5
4EA
 10
5325.0
 20
1875.0
 30
0.0
 40
50.0
  1
500-YEAR FLOOD
1001
VD_XPROPERTIES
  0
POLYLINE
  8
WS100
 62
     1
  5
4EB
 66
     1
 10
0.0
 20
0.0
 30
0.0
1001
VDEXTRAPARAM
1071
        0
1071
        0
1071
        0
1040
1.0
1000

1000

1001
VD_XPROPERTIES
  0
VERTEX
  8
WS100
 62
     1
  5
4EC
 10
4650.0
 20
1775.0
 30
0.0
  0
VERTEX
  8
WS100
 62
     1
  5
4ED
 10
5200.0
 20
1775.0
 30
0.0
  0
VERTEX
  8
WS100
 62
     1
  5
4EE
 10
5200.0
 20
1775.0
 30
0.0
  0
SEQEND
  8
0
  5
4EF
  0
TEXT
  8
TEXT
  5
4F0
 10
5325.0
 20
1750.0
 30
0.0
 40
50.0
  1
100-YEAR FLOOD
1001
VD_XPROPERTIES
  0
POLYLINE
  8
WS50
 62
     5
  5
4F1
 66
     1
 10
0.0
 20
0.0
 30
0.0
1001
VDEXTRAPARAM
1071
        0
1071
        0
1071
        0
1040
1.0
1000

1000

1001
VD_XPROPERTIES
  0
VERTEX
  8
WS50
 62
     5
  5
4F2
 10
4650.0
 20
1650.0
 30
0.0
  0
VERTEX
  8
WS50
 62
     5
  5
4F3
 10
5200.0
 20
1650.0
 30
0.0
  0
VERTEX
  8
WS50
 62
     5
  5
4F4
 10
5200.0
 20
1650.0
 30
0.0
  0
SEQEND
  8
0
  5
4F5
  0
TEXT
  8
TEXT
  5
4F6
 10
5325.0
 20
1625.0
 30
0.0
 40
50.0
  1
50-YEAR FLOOD
1001
VD_XPROPERTIES
  0
POLYLINE
  8
WS10
 62
     6
  5
4F7
 66
     1
 10
0.0
 20
0.0
 30
0.0
1001
VDEXTRAPARAM
1071
        0
1071
        0
1071
        0
1040
1.0
1000

1000

1001
VD_XPROPERTIES
  0
VERTEX
  8
WS10
 62
     6
  5
4F8
 10
4650.0
 20
1525.0
 30
0.0
  0
VERTEX
  8
WS10
 62
     6
  5
4F9
 10
5200.0
 20
1525.0
 30
0.0
  0
VERTEX
  8
WS10
 62
     6
  5
4FA
 10
5200.0
 20
1525.0
 30
0.0
  0
SEQEND
  8
0
  5
4FB
  0
TEXT
  8
TEXT
  5
4FC
 10
5325.0
 20
1500.0
 30
0.0
 40
50.0
  1
10-YEAR FLOOD
1001
VD_XPROPERTIES
  0
POLYLINE
  8
STREAM
 62
     1
  5
4FD
 66
     1
 10
0.0
 20
0.0
 30
0.0
1001
VDEXTRAPARAM
1071
        0
1071
        0
1071
        0
1040
1.0
1000

1000

1001
VD_XPROPERTIES
  0
VERTEX
  8
STREAM
 62
     1
  5
4FE
 10
4650.0
 20
1425.0
 30
0.0
  0
VERTEX
  8
STREAM
 62
     1
  5
4FF
 10
5200.0
 20
1425.0
 30
0.0
  0
VERTEX
  8
STREAM
 62
     1
  5
500
 10
5200.0
 20
1425.0
 30
0.0
  0
SEQEND
  8
0
  5
501
  0
TEXT
  8
TEXT
  5
502
 10
5325.0
 20
1375.0
 30
0.0
 40
50.0
  1
STREAM BED
1001
VD_XPROPERTIES
  0
INSERT
  8
ROCK
 62
     1
  5
503
  2
ROCK
 10
4650.0
 20
1424.5
 30
0.0
 41
500.0
 42
500.0
1001
VD_XPROPERTIES
  0
TEXT
  8
TEXT
  5
504
 10
5325.0
 20
1250.0
 30
0.0
 40
50.0
  1
CROSS SECTION
1001
VD_XPROPERTIES
  0
TEXT
  8
TEXT
  5
505
 10
5330.0
 20
1191.663
 30
0.0
 40
50.0
  1
LOCATION
1001
VD_XPROPERTIES
  0
POLYLINE
  8
LEGEND_XSEC
  5
506
 66
     1
 10
0.0
 20
0.0
 30
0.0
1001
VDEXTRAPARAM
1071
        0
1071
        0
1071
        0
1040
1.0
1000

1000

1001
VD_XPROPERTIES
  0
VERTEX
  8
LEGEND_XSEC
  5
507
 10
4925.0
 20
1300.0
 30
0.0
  0
VERTEX
  8
LEGEND_XSEC
  5
508
 10
4860.048
 20
1262.5
 30
0.0
  0
VERTEX
  8
LEGEND_XSEC
  5
509
 10
4860.048
 20
1187.5
 30
0.0
  0
VERTEX
  8
LEGEND_XSEC
  5
50A
 10
4925.0
 20
1150.0
 30
0.0
  0
VERTEX
  8
LEGEND_XSEC
  5
50B
 10
4989.952
 20
1187.5
 30
0.0
  0
VERTEX
  8
LEGEND_XSEC
  5
50C
 10
4989.952
 20
1262.5
 30
0.0
  0
VERTEX
  8
LEGEND_XSEC
  5
50D
 10
4925.0
 20
1300.0
 30
0.0
  0
VERTEX
  8
LEGEND_XSEC
  5
50E
 10
4925.0
 20
1325.0
 30
0.0
  0
VERTEX
  8
LEGEND_XSEC
  5
50F
 10
4925.0
 20
1325.0
 30
0.0
  0
SEQEND
  8
0
  5
510
  0
INSERT
  8
SYMBOL
 62
     2
  5
511
  2
ADO102
 10
-2200.0
 20
0.0
 30
0.0
1001
VD_XPROPERTIES
  0
ENDSEC
  0
EOF
