  0
SECTION
  2
ENTITIES
999
- - - Grid Lines - - -
  0
LINE
  8
0
 62
9
 10
0.000
 20
69300.000
 30
0
 11
0.000
 21
66900.000
 31
0
  0
LINE
  8
0
 62
9
 10
500.000
 20
69300.000
 30
0
 11
500.000
 21
66900.000
 31
0
  0
LINE
  8
0
 62
9
 10
1000.000
 20
69300.000
 30
0
 11
1000.000
 21
66900.000
 31
0
  0
LINE
  8
0
 62
9
 10
1500.000
 20
69300.000
 30
0
 11
1500.000
 21
66900.000
 31
0
  0
LINE
  8
0
 62
9
 10
2000.000
 20
69300.000
 30
0
 11
2000.000
 21
66900.000
 31
0
  0
LINE
  8
0
 62
9
 10
2500.000
 20
69300.000
 30
0
 11
2500.000
 21
66900.000
 31
0
  0
LINE
  8
0
 62
9
 10
3000.000
 20
69300.000
 30
0
 11
3000.000
 21
66900.000
 31
0
  0
LINE
  8
0
 62
9
 10
3500.000
 20
69300.000
 30
0
 11
3500.000
 21
66900.000
 31
0
  0
LINE
  8
0
 62
9
 10
0.000
 20
66900.000
 30
0
 11
3500.000
 21
66900.000
 31
0
  0
LINE
  8
0
 62
9
 10
0.000
 20
67200.000
 30
0
 11
3500.000
 21
67200.000
 31
0
  0
LINE
  8
0
 62
9
 10
0.000
 20
67500.000
 30
0
 11
3500.000
 21
67500.000
 31
0
  0
LINE
  8
0
 62
9
 10
0.000
 20
67800.000
 30
0
 11
3500.000
 21
67800.000
 31
0
  0
LINE
  8
0
 62
9
 10
0.000
 20
68100.000
 30
0
 11
3500.000
 21
68100.000
 31
0
  0
LINE
  8
0
 62
9
 10
0.000
 20
68400.000
 30
0
 11
3500.000
 21
68400.000
 31
0
  0
LINE
  8
0
 62
9
 10
0.000
 20
68700.000
 30
0
 11
3500.000
 21
68700.000
 31
0
  0
LINE
  8
0
 62
9
 10
0.000
 20
69000.000
 30
0
 11
3500.000
 21
69000.000
 31
0
  0
LINE
  8
0
 62
9
 10
0.000
 20
69300.000
 30
0
 11
3500.000
 21
69300.000
 31
0
  0
LINE
  8
0
 62
9
 10
100.000
 20
69300.000
 30
0
 11
100.000
 21
66900.000
 31
0
  0
LINE
  8
0
 62
9
 10
200.000
 20
69300.000
 30
0
 11
200.000
 21
66900.000
 31
0
  0
LINE
  8
0
 62
9
 10
300.000
 20
69300.000
 30
0
 11
300.000
 21
66900.000
 31
0
  0
LINE
  8
0
 62
9
 10
400.000
 20
69300.000
 30
0
 11
400.000
 21
66900.000
 31
0
  0
LINE
  8
0
 62
9
 10
600.000
 20
69300.000
 30
0
 11
600.000
 21
66900.000
 31
0
  0
LINE
  8
0
 62
9
 10
700.000
 20
69300.000
 30
0
 11
700.000
 21
66900.000
 31
0
  0
LINE
  8
0
 62
9
 10
800.000
 20
69300.000
 30
0
 11
800.000
 21
66900.000
 31
0
  0
LINE
  8
0
 62
9
 10
900.000
 20
69300.000
 30
0
 11
900.000
 21
66900.000
 31
0
  0
LINE
  8
0
 62
9
 10
1100.000
 20
69300.000
 30
0
 11
1100.000
 21
66900.000
 31
0
  0
LINE
  8
0
 62
9
 10
1200.000
 20
69300.000
 30
0
 11
1200.000
 21
66900.000
 31
0
  0
LINE
  8
0
 62
9
 10
1300.000
 20
69300.000
 30
0
 11
1300.000
 21
66900.000
 31
0
  0
LINE
  8
0
 62
9
 10
1400.000
 20
69300.000
 30
0
 11
1400.000
 21
66900.000
 31
0
  0
LINE
  8
0
 62
9
 10
1600.000
 20
69300.000
 30
0
 11
1600.000
 21
66900.000
 31
0
  0
LINE
  8
0
 62
9
 10
1700.000
 20
69300.000
 30
0
 11
1700.000
 21
66900.000
 31
0
  0
LINE
  8
0
 62
9
 10
1800.000
 20
69300.000
 30
0
 11
1800.000
 21
66900.000
 31
0
  0
LINE
  8
0
 62
9
 10
1900.000
 20
69300.000
 30
0
 11
1900.000
 21
66900.000
 31
0
  0
LINE
  8
0
 62
9
 10
2100.000
 20
69300.000
 30
0
 11
2100.000
 21
66900.000
 31
0
  0
LINE
  8
0
 62
9
 10
2200.000
 20
69300.000
 30
0
 11
2200.000
 21
66900.000
 31
0
  0
LINE
  8
0
 62
9
 10
2300.000
 20
69300.000
 30
0
 11
2300.000
 21
66900.000
 31
0
  0
LINE
  8
0
 62
9
 10
2400.000
 20
69300.000
 30
0
 11
2400.000
 21
66900.000
 31
0
  0
LINE
  8
0
 62
9
 10
2600.000
 20
69300.000
 30
0
 11
2600.000
 21
66900.000
 31
0
  0
LINE
  8
0
 62
9
 10
2700.000
 20
69300.000
 30
0
 11
2700.000
 21
66900.000
 31
0
  0
LINE
  8
0
 62
9
 10
2800.000
 20
69300.000
 30
0
 11
2800.000
 21
66900.000
 31
0
  0
LINE
  8
0
 62
9
 10
2899.999
 20
69300.000
 30
0
 11
2899.999
 21
66900.000
 31
0
  0
LINE
  8
0
 62
9
 10
3100.000
 20
69300.000
 30
0
 11
3100.000
 21
66900.000
 31
0
  0
LINE
  8
0
 62
9
 10
3200.000
 20
69300.000
 30
0
 11
3200.000
 21
66900.000
 31
0
  0
LINE
  8
0
 62
9
 10
3300.000
 20
69300.000
 30
0
 11
3300.000
 21
66900.000
 31
0
  0
LINE
  8
0
 62
9
 10
3400.000
 20
69300.000
 30
0
 11
3400.000
 21
66900.000
 31
0
  0
LINE
  8
0
 62
9
 10
0.000
 20
67050.000
 30
0
 11
3500.000
 21
67050.000
 31
0
  0
LINE
  8
0
 62
9
 10
0.000
 20
67350.000
 30
0
 11
3500.000
 21
67350.000
 31
0
  0
LINE
  8
0
 62
9
 10
0.000
 20
67650.000
 30
0
 11
3500.000
 21
67650.000
 31
0
  0
LINE
  8
0
 62
9
 10
0.000
 20
67950.000
 30
0
 11
3500.000
 21
67950.000
 31
0
  0
LINE
  8
0
 62
9
 10
0.000
 20
68250.000
 30
0
 11
3500.000
 21
68250.000
 31
0
  0
LINE
  8
0
 62
9
 10
0.000
 20
68550.000
 30
0
 11
3500.000
 21
68550.000
 31
0
  0
LINE
  8
0
 62
9
 10
0.000
 20
68850.000
 30
0
 11
3500.000
 21
68850.000
 31
0
  0
LINE
  8
0
 62
9
 10
0.000
 20
69150.000
 30
0
 11
3500.000
 21
69150.000
 31
0
  0
LINE
  8
0
 62
7
 10
0.000
 20
66900.000
 30
0
 11
0.000
 21
69300.000
 31
0
  0
LINE
  8
0
 62
7
 10
0.000
 20
69300.000
 30
0
 11
3500.000
 21
69300.000
 31
0
  0
LINE
  8
0
 62
7
 10
3500.000
 20
69300.000
 30
0
 11
3500.000
 21
66900.000
 31
0
  0
LINE
  8
0
 62
7
 10
3500.000
 20
66900.000
 30
0
 11
0.000
 21
66900.000
 31
0
999
- - - Axis - - -
  0
LINE
  8
0
 62
7
 10
0.000
 20
66900.000
 30
0
 11
0.000
 21
69300.000
 31
0
  0
LINE
  8
0
 62
7
 10
0.000
 20
66900.000
 30
0
 11
3500.000
 21
66900.000
 31
0
  0
LINE
  8
0
 62
7
 10
0.000
 20
66900.000
 30
0
 11
0.000
 21
66885.802
 31
0
  0
Text
  8
0
 10
0.000
 20
66878.704
 30
0
 40
35.49393
 50
0
  1
0
 72
1
 11
0.000
 21
66878.704
 31
0
 73
3
  0
LINE
  8
0
 62
7
 10
500.000
 20
66900.000
 30
0
 11
500.000
 21
66885.802
 31
0
  0
Text
  8
0
 10
500.000
 20
66878.704
 30
0
 40
35.49393
 50
0
  1
500
 72
1
 11
500.000
 21
66878.704
 31
0
 73
3
  0
LINE
  8
0
 62
7
 10
1000.000
 20
66900.000
 30
0
 11
1000.000
 21
66885.802
 31
0
  0
Text
  8
0
 10
1000.000
 20
66878.704
 30
0
 40
35.49393
 50
0
  1
1000
 72
1
 11
1000.000
 21
66878.704
 31
0
 73
3
  0
LINE
  8
0
 62
7
 10
1500.000
 20
66900.000
 30
0
 11
1500.000
 21
66885.802
 31
0
  0
Text
  8
0
 10
1500.000
 20
66878.704
 30
0
 40
35.49393
 50
0
  1
1500
 72
1
 11
1500.000
 21
66878.704
 31
0
 73
3
  0
LINE
  8
0
 62
7
 10
2000.000
 20
66900.000
 30
0
 11
2000.000
 21
66885.802
 31
0
  0
Text
  8
0
 10
2000.000
 20
66878.704
 30
0
 40
35.49393
 50
0
  1
2000
 72
1
 11
2000.000
 21
66878.704
 31
0
 73
3
  0
LINE
  8
0
 62
7
 10
2500.000
 20
66900.000
 30
0
 11
2500.000
 21
66885.802
 31
0
  0
Text
  8
0
 10
2500.000
 20
66878.704
 30
0
 40
35.49393
 50
0
  1
2500
 72
1
 11
2500.000
 21
66878.704
 31
0
 73
3
  0
LINE
  8
0
 62
7
 10
3000.000
 20
66900.000
 30
0
 11
3000.000
 21
66885.802
 31
0
  0
Text
  8
0
 10
3000.000
 20
66878.704
 30
0
 40
35.49393
 50
0
  1
3000
 72
1
 11
3000.000
 21
66878.704
 31
0
 73
3
  0
LINE
  8
0
 62
7
 10
3500.000
 20
66900.000
 30
0
 11
3500.000
 21
66885.802
 31
0
  0
Text
  8
0
 10
3500.000
 20
66878.704
 30
0
 40
35.49393
 50
0
  1
3500
 72
1
 11
3500.000
 21
66878.704
 31
0
 73
3
  0
LINE
  8
0
 62
7
 10
100.000
 20
66900.000
 30
0
 11
100.000
 21
66891.127
 31
0
  0
LINE
  8
0
 62
7
 10
200.000
 20
66900.000
 30
0
 11
200.000
 21
66891.127
 31
0
  0
LINE
  8
0
 62
7
 10
300.000
 20
66900.000
 30
0
 11
300.000
 21
66891.127
 31
0
  0
LINE
  8
0
 62
7
 10
400.000
 20
66900.000
 30
0
 11
400.000
 21
66891.127
 31
0
  0
LINE
  8
0
 62
7
 10
600.000
 20
66900.000
 30
0
 11
600.000
 21
66891.127
 31
0
  0
LINE
  8
0
 62
7
 10
700.000
 20
66900.000
 30
0
 11
700.000
 21
66891.127
 31
0
  0
LINE
  8
0
 62
7
 10
800.000
 20
66900.000
 30
0
 11
800.000
 21
66891.127
 31
0
  0
LINE
  8
0
 62
7
 10
900.000
 20
66900.000
 30
0
 11
900.000
 21
66891.127
 31
0
  0
LINE
  8
0
 62
7
 10
1100.000
 20
66900.000
 30
0
 11
1100.000
 21
66891.127
 31
0
  0
LINE
  8
0
 62
7
 10
1200.000
 20
66900.000
 30
0
 11
1200.000
 21
66891.127
 31
0
  0
LINE
  8
0
 62
7
 10
1300.000
 20
66900.000
 30
0
 11
1300.000
 21
66891.127
 31
0
  0
LINE
  8
0
 62
7
 10
1400.000
 20
66900.000
 30
0
 11
1400.000
 21
66891.127
 31
0
  0
LINE
  8
0
 62
7
 10
1600.000
 20
66900.000
 30
0
 11
1600.000
 21
66891.127
 31
0
  0
LINE
  8
0
 62
7
 10
1700.000
 20
66900.000
 30
0
 11
1700.000
 21
66891.127
 31
0
  0
LINE
  8
0
 62
7
 10
1800.000
 20
66900.000
 30
0
 11
1800.000
 21
66891.127
 31
0
  0
LINE
  8
0
 62
7
 10
1900.000
 20
66900.000
 30
0
 11
1900.000
 21
66891.127
 31
0
  0
LINE
  8
0
 62
7
 10
2100.000
 20
66900.000
 30
0
 11
2100.000
 21
66891.127
 31
0
  0
LINE
  8
0
 62
7
 10
2200.000
 20
66900.000
 30
0
 11
2200.000
 21
66891.127
 31
0
  0
LINE
  8
0
 62
7
 10
2300.000
 20
66900.000
 30
0
 11
2300.000
 21
66891.127
 31
0
  0
LINE
  8
0
 62
7
 10
2400.000
 20
66900.000
 30
0
 11
2400.000
 21
66891.127
 31
0
  0
LINE
  8
0
 62
7
 10
2600.000
 20
66900.000
 30
0
 11
2600.000
 21
66891.127
 31
0
  0
LINE
  8
0
 62
7
 10
2700.000
 20
66900.000
 30
0
 11
2700.000
 21
66891.127
 31
0
  0
LINE
  8
0
 62
7
 10
2800.000
 20
66900.000
 30
0
 11
2800.000
 21
66891.127
 31
0
  0
LINE
  8
0
 62
7
 10
2899.999
 20
66900.000
 30
0
 11
2899.999
 21
66891.127
 31
0
  0
LINE
  8
0
 62
7
 10
3100.000
 20
66900.000
 30
0
 11
3100.000
 21
66891.127
 31
0
  0
LINE
  8
0
 62
7
 10
3200.000
 20
66900.000
 30
0
 11
3200.000
 21
66891.127
 31
0
  0
LINE
  8
0
 62
7
 10
3300.000
 20
66900.000
 30
0
 11
3300.000
 21
66891.127
 31
0
  0
LINE
  8
0
 62
7
 10
3400.000
 20
66900.000
 30
0
 11
3400.000
 21
66891.127
 31
0
  0
LINE
  8
0
 62
7
 10
0.000
 20
66900.000
 30
0
 11
-14.198
 21
66900.000
 31
0
  0
Text
  8
0
 10
-28.395
 20
66900.000
 30
0
 40
35.49393
 50
0
  1
2230
 72
2
 11
-28.395
 21
66900.000
 31
0
 73
2
  0
LINE
  8
0
 62
7
 10
0.000
 20
67200.000
 30
0
 11
-14.198
 21
67200.000
 31
0
  0
Text
  8
0
 10
-28.395
 20
67200.000
 30
0
 40
35.49393
 50
0
  1
2240
 72
2
 11
-28.395
 21
67200.000
 31
0
 73
2
  0
LINE
  8
0
 62
7
 10
0.000
 20
67500.000
 30
0
 11
-14.198
 21
67500.000
 31
0
  0
Text
  8
0
 10
-28.395
 20
67500.000
 30
0
 40
35.49393
 50
0
  1
2250
 72
2
 11
-28.395
 21
67500.000
 31
0
 73
2
  0
LINE
  8
0
 62
7
 10
0.000
 20
67800.000
 30
0
 11
-14.198
 21
67800.000
 31
0
  0
Text
  8
0
 10
-28.395
 20
67800.000
 30
0
 40
35.49393
 50
0
  1
2260
 72
2
 11
-28.395
 21
67800.000
 31
0
 73
2
  0
LINE
  8
0
 62
7
 10
0.000
 20
68100.000
 30
0
 11
-14.198
 21
68100.000
 31
0
  0
Text
  8
0
 10
-28.395
 20
68100.000
 30
0
 40
35.49393
 50
0
  1
2270
 72
2
 11
-28.395
 21
68100.000
 31
0
 73
2
  0
LINE
  8
0
 62
7
 10
0.000
 20
68400.000
 30
0
 11
-14.198
 21
68400.000
 31
0
  0
Text
  8
0
 10
-28.395
 20
68400.000
 30
0
 40
35.49393
 50
0
  1
2280
 72
2
 11
-28.395
 21
68400.000
 31
0
 73
2
  0
LINE
  8
0
 62
7
 10
0.000
 20
68700.000
 30
0
 11
-14.198
 21
68700.000
 31
0
  0
Text
  8
0
 10
-28.395
 20
68700.000
 30
0
 40
35.49393
 50
0
  1
2290
 72
2
 11
-28.395
 21
68700.000
 31
0
 73
2
  0
LINE
  8
0
 62
7
 10
0.000
 20
69000.000
 30
0
 11
-14.198
 21
69000.000
 31
0
  0
Text
  8
0
 10
-28.395
 20
69000.000
 30
0
 40
35.49393
 50
0
  1
2300
 72
2
 11
-28.395
 21
69000.000
 31
0
 73
2
  0
LINE
  8
0
 62
7
 10
0.000
 20
69300.000
 30
0
 11
-14.198
 21
69300.000
 31
0
  0
Text
  8
0
 10
-28.395
 20
69300.000
 30
0
 40
35.49393
 50
0
  1
2310
 72
2
 11
-28.395
 21
69300.000
 31
0
 73
2
  0
LINE
  8
0
 62
7
 10
0.000
 20
67050.000
 30
0
 11
-8.873
 21
67050.000
 31
0
  0
LINE
  8
0
 62
7
 10
0.000
 20
67350.000
 30
0
 11
-8.873
 21
67350.000
 31
0
  0
LINE
  8
0
 62
7
 10
0.000
 20
67650.000
 30
0
 11
-8.873
 21
67650.000
 31
0
  0
LINE
  8
0
 62
7
 10
0.000
 20
67950.000
 30
0
 11
-8.873
 21
67950.000
 31
0
  0
LINE
  8
0
 62
7
 10
0.000
 20
68250.000
 30
0
 11
-8.873
 21
68250.000
 31
0
  0
LINE
  8
0
 62
7
 10
0.000
 20
68550.000
 30
0
 11
-8.873
 21
68550.000
 31
0
  0
LINE
  8
0
 62
7
 10
0.000
 20
68850.000
 30
0
 11
-8.873
 21
68850.000
 31
0
  0
LINE
  8
0
 62
7
 10
0.000
 20
69150.000
 30
0
 11
-8.873
 21
69150.000
 31
0
  0
Text
  8
0
 10
1750.000
 20
69366.551
 30
0
 40
44.36742
 50
0
  1
W331-332 - Butcher Hook Wash       Plan: Butcher Hook - Refined    5/8/2004 
 72
1
 11
1750.000
 21
69366.551
 31
0
 73
3
  0
Text
  8
0
 10
1750.000
 20
66751.231
 30
0
 40
35.49393
 50
0
  1
Main Channel Distance (ft)
 72
1
 11
1750.000
 21
66751.231
 31
0
 73
3
  0
Text
  8
0
 10
-212.964
 20
68100.000
 30
0
 40
35.49393
 50
90
  1
Elevation (ft)
 72
1
 11
-212.964
 21
68100.000
 31
0
 73
3
999
- - - Legend - - -
  0
Text
  8
0
 10
3659.723
 20
69282.253
 30
0
 40
35.49393
 50
0
  1
Legend
 72
1
 11
3659.723
 21
69282.253
 31
0
 73
3
  0
LINE
  8
0
 62
7
 10
3570.988
 20
69229.012
 30
0
 11
3748.458
 21
69229.012
 31
0
  0
LINE
  8
0
 62
4
 10
3570.988
 20
69175.771
 30
0
 11
3748.458
 21
69175.771
 31
0
  0
LINE
  8
0
 62
4
 10
3654.731
 20
69170.780
 30
0
 11
3664.714
 21
69180.763
 31
0
  0
LINE
  8
0
 62
4
 10
3654.731
 20
69180.763
 30
0
 11
3664.714
 21
69170.780
 31
0
  0
Text
  8
0
 10
3659.723
 20
69140.277
 30
0
 40
35.49393
 50
0
  1
WS  Q500
 72
1
 11
3659.723
 21
69140.277
 31
0
 73
3
  0
LINE
  8
0
 62
4
 10
3570.988
 20
69087.036
 30
0
 11
3748.458
 21
69087.036
 31
0
  0
LINE
  8
0
 62
4
 10
3654.731
 20
69090.364
 30
0
 11
3664.714
 21
69090.364
 31
0
  0
LINE
  8
0
 62
4
 10
3659.723
 20
69080.381
 30
0
 11
3664.714
 21
69090.364
 31
0
  0
LINE
  8
0
 62
4
 10
3659.723
 20
69080.381
 30
0
 11
3654.731
 21
69090.364
 31
0
  0
Text
  8
0
 10
3659.723
 20
69051.542
 30
0
 40
35.49393
 50
0
  1
WS  Q100
 72
1
 11
3659.723
 21
69051.542
 31
0
 73
3
  0
LINE
  8
0
 62
4
 10
3570.988
 20
68998.302
 30
0
 11
3748.458
 21
68998.302
 31
0
  0
LINE
  8
0
 62
4
 10
3654.731
 20
68994.974
 30
0
 11
3664.714
 21
68994.974
 31
0
  0
LINE
  8
0
 62
4
 10
3659.723
 20
69004.957
 30
0
 11
3664.714
 21
68994.974
 31
0
  0
LINE
  8
0
 62
4
 10
3659.723
 20
69004.957
 30
0
 11
3654.731
 21
68994.974
 31
0
  0
Text
  8
0
 10
3659.723
 20
68962.808
 30
0
 40
35.49393
 50
0
  1
WS  Q50
 72
1
 11
3659.723
 21
68962.808
 31
0
 73
3
  0
LINE
  8
0
 62
4
 10
3570.988
 20
68909.567
 30
0
 11
3748.458
 21
68909.567
 31
0
  0
Text
  8
0
 10
3659.723
 20
68874.073
 30
0
 40
35.49393
 50
0
  1
WS  Q10
 72
1
 11
3659.723
 21
68874.073
 31
0
 73
3
  0
LINE
  8
0
 62
7
 10
3570.988
 20
68820.832
 30
0
 11
3748.458
 21
68820.832
 31
0
  0
LINE
  8
0
 62
7
 10
3654.731
 20
68815.841
 30
0
 11
3654.731
 21
68825.823
 31
0
  0
LINE
  8
0
 62
7
 10
3654.731
 20
68825.823
 30
0
 11
3664.714
 21
68825.823
 31
0
  0
LINE
  8
0
 62
7
 10
3664.714
 20
68825.823
 30
0
 11
3664.714
 21
68815.841
 31
0
  0
LINE
  8
0
 62
7
 10
3664.714
 20
68815.841
 30
0
 11
3654.731
 21
68815.841
 31
0
  0
Text
  8
0
 10
3659.723
 20
68785.338
 30
0
 40
35.49393
 50
0
  1
Ground
 72
1
 11
3659.723
 21
68785.338
 31
0
 73
3
  0
LINE
  8
0
 62
7
 10
3535.494
 20
69300.000
 30
0
 11
3783.951
 21
69300.000
 31
0
  0
LINE
  8
0
 62
7
 10
3783.951
 20
69300.000
 30
0
 11
3783.951
 21
68732.097
 31
0
  0
LINE
  8
0
 62
7
 10
3535.494
 20
69300.000
 30
0
 11
3535.494
 21
68732.097
 31
0
  0
LINE
  8
0
 62
7
 10
3783.951
 20
68732.097
 30
0
 11
3535.494
 21
68732.097
 31
0
999
- - - Line Data - - -
999
- - - Line Data - - -
  0
LINE
  8
0
 62
7
 10
792.620
 20
67051.201
 30
0
 11
792.620
 21
67163.401
 31
0
  0
LINE
  8
0
 62
7
 10
792.620
 20
67163.401
 30
0
 11
829.620
 21
67208.701
 31
0
  0
LINE
  8
0
 62
7
 10
829.620
 20
67208.701
 30
0
 11
829.620
 21
67123.799
 31
0
  0
LINE
  8
0
 62
7
 10
829.620
 20
67123.799
 30
0
 11
792.620
 21
67051.201
 31
0
999
- - - Line Data - - -
  0
LINE
  8
0
 62
7
 10
2543.340
 20
68183.101
 30
0
 11
2543.340
 21
68467.354
 31
0
  0
LINE
  8
0
 62
7
 10
2543.340
 20
68467.354
 30
0
 11
2591.340
 21
68476.692
 31
0
  0
LINE
  8
0
 62
7
 10
2591.340
 20
68476.692
 30
0
 11
2591.340
 21
68266.201
 31
0
  0
LINE
  8
0
 62
7
 10
2591.340
 20
68266.201
 30
0
 11
2543.340
 21
68183.101
 31
0
999
- - - Line Data - - -
  0
LINE
  8
0
 62
7
 10
795.620
 20
67081.802
 30
0
 11
795.620
 21
67201.802
 31
0
  0
LINE
  8
0
 62
7
 10
795.620
 20
67201.802
 30
0
 11
835.620
 21
67214.099
 31
0
  0
LINE
  8
0
 62
7
 10
835.620
 20
67214.099
 30
0
 11
835.620
 21
67094.099
 31
0
  0
LINE
  8
0
 62
7
 10
835.620
 20
67094.099
 30
0
 11
795.620
 21
67081.802
 31
0
999
- - - Line Data - - -
  0
LINE
  8
0
 62
7
 10
795.620
 20
67065.901
 30
0
 11
795.620
 21
67185.901
 31
0
  0
LINE
  8
0
 62
7
 10
795.620
 20
67185.901
 30
0
 11
835.620
 21
67231.802
 31
0
  0
LINE
  8
0
 62
7
 10
835.620
 20
67231.802
 30
0
 11
835.620
 21
67111.802
 31
0
  0
LINE
  8
0
 62
7
 10
835.620
 20
67111.802
 30
0
 11
795.620
 21
67065.901
 31
0
999
- - - Line Data - - -
  0
LINE
  8
0
 62
7
 10
2494.340
 20
68175.901
 30
0
 11
2494.340
 21
68295.901
 31
0
  0
LINE
  8
0
 62
7
 10
2494.340
 20
68295.901
 30
0
 11
2638.340
 21
68359.797
 31
0
  0
LINE
  8
0
 62
7
 10
2638.340
 20
68359.797
 30
0
 11
2638.340
 21
68239.797
 31
0
  0
LINE
  8
0
 62
7
 10
2638.340
 20
68239.797
 30
0
 11
2494.340
 21
68175.901
 31
0
999
- - - Line Data - - -
  0
LINE
  8
0
 62
7
 10
0.000
 20
66904.797
 30
0
 11
542.910
 21
66975.000
 31
0
  0
LINE
  8
0
 62
7
 10
542.910
 20
66975.000
 30
0
 11
748.290
 21
67051.201
 31
0
  0
LINE
  8
0
 62
7
 10
748.290
 20
67051.201
 30
0
 11
792.620
 21
67051.201
 31
0
  0
LINE
  8
0
 62
7
 10
792.620
 20
67051.201
 30
0
 11
829.620
 21
67123.799
 31
0
  0
LINE
  8
0
 62
7
 10
829.620
 20
67123.799
 30
0
 11
863.620
 21
67123.799
 31
0
  0
LINE
  8
0
 62
7
 10
863.620
 20
67123.799
 30
0
 11
999.840
 21
67173.604
 31
0
  0
LINE
  8
0
 62
7
 10
999.840
 20
67173.604
 30
0
 11
1246.580
 21
67360.503
 31
0
  0
LINE
  8
0
 62
7
 10
1246.580
 20
67360.503
 30
0
 11
1262.630
 21
67311.899
 31
0
  0
LINE
  8
0
 62
7
 10
1262.630
 20
67311.899
 30
0
 11
1438.670
 21
67400.999
 31
0
  0
LINE
  8
0
 62
7
 10
1438.670
 20
67400.999
 30
0
 11
1576.360
 21
67464.902
 31
0
  0
LINE
  8
0
 62
7
 10
1576.360
 20
67464.902
 30
0
 11
1653.170
 21
67476.599
 31
0
  0
LINE
  8
0
 62
7
 10
1653.170
 20
67476.599
 30
0
 11
1771.840
 21
67551.299
 31
0
  0
LINE
  8
0
 62
7
 10
1771.840
 20
67551.299
 30
0
 11
2065.180
 21
67898.401
 31
0
  0
LINE
  8
0
 62
7
 10
2065.180
 20
67898.401
 30
0
 11
2118.050
 21
67922.703
 31
0
  0
LINE
  8
0
 62
7
 10
2118.050
 20
67922.703
 30
0
 11
2221.020
 21
67968.003
 31
0
  0
LINE
  8
0
 62
7
 10
2221.020
 20
67968.003
 30
0
 11
2400.710
 21
68074.497
 31
0
  0
LINE
  8
0
 62
7
 10
2400.710
 20
68074.497
 30
0
 11
2478.740
 21
68183.101
 31
0
  0
LINE
  8
0
 62
7
 10
2478.740
 20
68183.101
 30
0
 11
2543.340
 21
68183.101
 31
0
  0
LINE
  8
0
 62
7
 10
2543.340
 20
68183.101
 30
0
 11
2591.340
 21
68266.201
 31
0
  0
LINE
  8
0
 62
7
 10
2591.340
 20
68266.201
 30
0
 11
2641.340
 21
68266.201
 31
0
  0
LINE
  8
0
 62
7
 10
2641.340
 20
68266.201
 30
0
 11
2731.380
 21
68314.497
 31
0
  0
LINE
  8
0
 62
7
 10
2731.380
 20
68314.497
 30
0
 11
2820.500
 21
68436.299
 31
0
  0
LINE
  8
0
 62
7
 10
2820.500
 20
68436.299
 30
0
 11
3016.310
 21
68703.604
 31
0
  0
LINE
  8
0
 62
7
 10
3016.310
 20
68703.604
 30
0
 11
3299.260
 21
68941.802
 31
0
999
- - - Symbol Data - - -
  0
LINE
  8
0
 62
7
 10
-4.991
 20
66899.806
 30
0
 11
-4.991
 21
66909.789
 31
0
  0
LINE
  8
0
 62
7
 10
-4.991
 20
66909.789
 30
0
 11
4.991
 21
66909.789
 31
0
  0
LINE
  8
0
 62
7
 10
4.991
 20
66909.789
 30
0
 11
4.991
 21
66899.806
 31
0
  0
LINE
  8
0
 62
7
 10
4.991
 20
66899.806
 30
0
 11
-4.991
 21
66899.806
 31
0
  0
LINE
  8
0
 62
7
 10
537.919
 20
66970.009
 30
0
 11
537.919
 21
66979.991
 31
0
  0
LINE
  8
0
 62
7
 10
537.919
 20
66979.991
 30
0
 11
547.901
 21
66979.991
 31
0
  0
LINE
  8
0
 62
7
 10
547.901
 20
66979.991
 30
0
 11
547.901
 21
66970.009
 31
0
  0
LINE
  8
0
 62
7
 10
547.901
 20
66970.009
 30
0
 11
537.919
 21
66970.009
 31
0
  0
LINE
  8
0
 62
7
 10
743.299
 20
67046.210
 30
0
 11
743.299
 21
67056.193
 31
0
  0
LINE
  8
0
 62
7
 10
743.299
 20
67056.193
 30
0
 11
753.281
 21
67056.193
 31
0
  0
LINE
  8
0
 62
7
 10
753.281
 20
67056.193
 30
0
 11
753.281
 21
67046.210
 31
0
  0
LINE
  8
0
 62
7
 10
753.281
 20
67046.210
 30
0
 11
743.299
 21
67046.210
 31
0
  0
LINE
  8
0
 62
7
 10
787.629
 20
67046.210
 30
0
 11
787.629
 21
67056.193
 31
0
  0
LINE
  8
0
 62
7
 10
787.629
 20
67056.193
 30
0
 11
797.611
 21
67056.193
 31
0
  0
LINE
  8
0
 62
7
 10
797.611
 20
67056.193
 30
0
 11
797.611
 21
67046.210
 31
0
  0
LINE
  8
0
 62
7
 10
797.611
 20
67046.210
 30
0
 11
787.629
 21
67046.210
 31
0
  0
LINE
  8
0
 62
7
 10
824.629
 20
67118.807
 30
0
 11
824.629
 21
67128.790
 31
0
  0
LINE
  8
0
 62
7
 10
824.629
 20
67128.790
 30
0
 11
834.611
 21
67128.790
 31
0
  0
LINE
  8
0
 62
7
 10
834.611
 20
67128.790
 30
0
 11
834.611
 21
67118.807
 31
0
  0
LINE
  8
0
 62
7
 10
834.611
 20
67118.807
 30
0
 11
824.629
 21
67118.807
 31
0
  0
LINE
  8
0
 62
7
 10
858.629
 20
67118.807
 30
0
 11
858.629
 21
67128.790
 31
0
  0
LINE
  8
0
 62
7
 10
858.629
 20
67128.790
 30
0
 11
868.611
 21
67128.790
 31
0
  0
LINE
  8
0
 62
7
 10
868.611
 20
67128.790
 30
0
 11
868.611
 21
67118.807
 31
0
  0
LINE
  8
0
 62
7
 10
868.611
 20
67118.807
 30
0
 11
858.629
 21
67118.807
 31
0
  0
LINE
  8
0
 62
7
 10
994.849
 20
67168.612
 30
0
 11
994.849
 21
67178.595
 31
0
  0
LINE
  8
0
 62
7
 10
994.849
 20
67178.595
 30
0
 11
1004.831
 21
67178.595
 31
0
  0
LINE
  8
0
 62
7
 10
1004.831
 20
67178.595
 30
0
 11
1004.831
 21
67168.612
 31
0
  0
LINE
  8
0
 62
7
 10
1004.831
 20
67168.612
 30
0
 11
994.849
 21
67168.612
 31
0
  0
LINE
  8
0
 62
7
 10
1241.589
 20
67355.512
 30
0
 11
1241.589
 21
67365.494
 31
0
  0
LINE
  8
0
 62
7
 10
1241.589
 20
67365.494
 30
0
 11
1251.571
 21
67365.494
 31
0
  0
LINE
  8
0
 62
7
 10
1251.571
 20
67365.494
 30
0
 11
1251.571
 21
67355.512
 31
0
  0
LINE
  8
0
 62
7
 10
1251.571
 20
67355.512
 30
0
 11
1241.589
 21
67355.512
 31
0
  0
LINE
  8
0
 62
7
 10
1257.639
 20
67306.908
 30
0
 11
1257.639
 21
67316.891
 31
0
  0
LINE
  8
0
 62
7
 10
1257.639
 20
67316.891
 30
0
 11
1267.621
 21
67316.891
 31
0
  0
LINE
  8
0
 62
7
 10
1267.621
 20
67316.891
 30
0
 11
1267.621
 21
67306.908
 31
0
  0
LINE
  8
0
 62
7
 10
1267.621
 20
67306.908
 30
0
 11
1257.639
 21
67306.908
 31
0
  0
LINE
  8
0
 62
7
 10
1433.679
 20
67396.007
 30
0
 11
1433.679
 21
67405.990
 31
0
  0
LINE
  8
0
 62
7
 10
1433.679
 20
67405.990
 30
0
 11
1443.661
 21
67405.990
 31
0
  0
LINE
  8
0
 62
7
 10
1443.661
 20
67405.990
 30
0
 11
1443.661
 21
67396.007
 31
0
  0
LINE
  8
0
 62
7
 10
1443.661
 20
67396.007
 30
0
 11
1433.679
 21
67396.007
 31
0
  0
LINE
  8
0
 62
7
 10
1571.369
 20
67459.911
 30
0
 11
1571.369
 21
67469.894
 31
0
  0
LINE
  8
0
 62
7
 10
1571.369
 20
67469.894
 30
0
 11
1581.351
 21
67469.894
 31
0
  0
LINE
  8
0
 62
7
 10
1581.351
 20
67469.894
 30
0
 11
1581.351
 21
67459.911
 31
0
  0
LINE
  8
0
 62
7
 10
1581.351
 20
67459.911
 30
0
 11
1571.369
 21
67459.911
 31
0
  0
LINE
  8
0
 62
7
 10
1648.179
 20
67471.608
 30
0
 11
1648.179
 21
67481.590
 31
0
  0
LINE
  8
0
 62
7
 10
1648.179
 20
67481.590
 30
0
 11
1658.161
 21
67481.590
 31
0
  0
LINE
  8
0
 62
7
 10
1658.161
 20
67481.590
 30
0
 11
1658.161
 21
67471.608
 31
0
  0
LINE
  8
0
 62
7
 10
1658.161
 20
67471.608
 30
0
 11
1648.179
 21
67471.608
 31
0
  0
LINE
  8
0
 62
7
 10
1766.849
 20
67546.307
 30
0
 11
1766.849
 21
67556.290
 31
0
  0
LINE
  8
0
 62
7
 10
1766.849
 20
67556.290
 30
0
 11
1776.831
 21
67556.290
 31
0
  0
LINE
  8
0
 62
7
 10
1776.831
 20
67556.290
 30
0
 11
1776.831
 21
67546.307
 31
0
  0
LINE
  8
0
 62
7
 10
1776.831
 20
67546.307
 30
0
 11
1766.849
 21
67546.307
 31
0
  0
LINE
  8
0
 62
7
 10
2060.189
 20
67893.410
 30
0
 11
2060.189
 21
67903.392
 31
0
  0
LINE
  8
0
 62
7
 10
2060.189
 20
67903.392
 30
0
 11
2070.171
 21
67903.392
 31
0
  0
LINE
  8
0
 62
7
 10
2070.171
 20
67903.392
 30
0
 11
2070.171
 21
67893.410
 31
0
  0
LINE
  8
0
 62
7
 10
2070.171
 20
67893.410
 30
0
 11
2060.189
 21
67893.410
 31
0
  0
LINE
  8
0
 62
7
 10
2113.059
 20
67917.711
 30
0
 11
2113.059
 21
67927.694
 31
0
  0
LINE
  8
0
 62
7
 10
2113.059
 20
67927.694
 30
0
 11
2123.041
 21
67927.694
 31
0
  0
LINE
  8
0
 62
7
 10
2123.041
 20
67927.694
 30
0
 11
2123.041
 21
67917.711
 31
0
  0
LINE
  8
0
 62
7
 10
2123.041
 20
67917.711
 30
0
 11
2113.059
 21
67917.711
 31
0
  0
LINE
  8
0
 62
7
 10
2216.029
 20
67963.012
 30
0
 11
2216.029
 21
67972.994
 31
0
  0
LINE
  8
0
 62
7
 10
2216.029
 20
67972.994
 30
0
 11
2226.011
 21
67972.994
 31
0
  0
LINE
  8
0
 62
7
 10
2226.011
 20
67972.994
 30
0
 11
2226.011
 21
67963.012
 31
0
  0
LINE
  8
0
 62
7
 10
2226.011
 20
67963.012
 30
0
 11
2216.029
 21
67963.012
 31
0
  0
LINE
  8
0
 62
7
 10
2395.719
 20
68069.506
 30
0
 11
2395.719
 21
68079.488
 31
0
  0
LINE
  8
0
 62
7
 10
2395.719
 20
68079.488
 30
0
 11
2405.701
 21
68079.488
 31
0
  0
LINE
  8
0
 62
7
 10
2405.701
 20
68079.488
 30
0
 11
2405.701
 21
68069.506
 31
0
  0
LINE
  8
0
 62
7
 10
2405.701
 20
68069.506
 30
0
 11
2395.719
 21
68069.506
 31
0
  0
LINE
  8
0
 62
7
 10
2473.749
 20
68178.109
 30
0
 11
2473.749
 21
68188.092
 31
0
  0
LINE
  8
0
 62
7
 10
2473.749
 20
68188.092
 30
0
 11
2483.731
 21
68188.092
 31
0
  0
LINE
  8
0
 62
7
 10
2483.731
 20
68188.092
 30
0
 11
2483.731
 21
68178.109
 31
0
  0
LINE
  8
0
 62
7
 10
2483.731
 20
68178.109
 30
0
 11
2473.749
 21
68178.109
 31
0
  0
LINE
  8
0
 62
7
 10
2538.349
 20
68178.109
 30
0
 11
2538.349
 21
68188.092
 31
0
  0
LINE
  8
0
 62
7
 10
2538.349
 20
68188.092
 30
0
 11
2548.331
 21
68188.092
 31
0
  0
LINE
  8
0
 62
7
 10
2548.331
 20
68188.092
 30
0
 11
2548.331
 21
68178.109
 31
0
  0
LINE
  8
0
 62
7
 10
2548.331
 20
68178.109
 30
0
 11
2538.349
 21
68178.109
 31
0
  0
LINE
  8
0
 62
7
 10
2586.349
 20
68261.210
 30
0
 11
2586.349
 21
68271.193
 31
0
  0
LINE
  8
0
 62
7
 10
2586.349
 20
68271.193
 30
0
 11
2596.331
 21
68271.193
 31
0
  0
LINE
  8
0
 62
7
 10
2596.331
 20
68271.193
 30
0
 11
2596.331
 21
68261.210
 31
0
  0
LINE
  8
0
 62
7
 10
2596.331
 20
68261.210
 30
0
 11
2586.349
 21
68261.210
 31
0
  0
LINE
  8
0
 62
7
 10
2636.349
 20
68261.210
 30
0
 11
2636.349
 21
68271.193
 31
0
  0
LINE
  8
0
 62
7
 10
2636.349
 20
68271.193
 30
0
 11
2646.331
 21
68271.193
 31
0
  0
LINE
  8
0
 62
7
 10
2646.331
 20
68271.193
 30
0
 11
2646.331
 21
68261.210
 31
0
  0
LINE
  8
0
 62
7
 10
2646.331
 20
68261.210
 30
0
 11
2636.349
 21
68261.210
 31
0
  0
LINE
  8
0
 62
7
 10
2726.389
 20
68309.506
 30
0
 11
2726.389
 21
68319.488
 31
0
  0
LINE
  8
0
 62
7
 10
2726.389
 20
68319.488
 30
0
 11
2736.371
 21
68319.488
 31
0
  0
LINE
  8
0
 62
7
 10
2736.371
 20
68319.488
 30
0
 11
2736.371
 21
68309.506
 31
0
  0
LINE
  8
0
 62
7
 10
2736.371
 20
68309.506
 30
0
 11
2726.389
 21
68309.506
 31
0
  0
LINE
  8
0
 62
7
 10
2815.509
 20
68431.307
 30
0
 11
2815.509
 21
68441.290
 31
0
  0
LINE
  8
0
 62
7
 10
2815.509
 20
68441.290
 30
0
 11
2825.491
 21
68441.290
 31
0
  0
LINE
  8
0
 62
7
 10
2825.491
 20
68441.290
 30
0
 11
2825.491
 21
68431.307
 31
0
  0
LINE
  8
0
 62
7
 10
2825.491
 20
68431.307
 30
0
 11
2815.509
 21
68431.307
 31
0
  0
LINE
  8
0
 62
7
 10
3011.319
 20
68698.612
 30
0
 11
3011.319
 21
68708.595
 31
0
  0
LINE
  8
0
 62
7
 10
3011.319
 20
68708.595
 30
0
 11
3021.301
 21
68708.595
 31
0
  0
LINE
  8
0
 62
7
 10
3021.301
 20
68708.595
 30
0
 11
3021.301
 21
68698.612
 31
0
  0
LINE
  8
0
 62
7
 10
3021.301
 20
68698.612
 30
0
 11
3011.319
 21
68698.612
 31
0
  0
LINE
  8
0
 62
7
 10
3294.269
 20
68936.810
 30
0
 11
3294.269
 21
68946.793
 31
0
  0
LINE
  8
0
 62
7
 10
3294.269
 20
68946.793
 30
0
 11
3304.251
 21
68946.793
 31
0
  0
LINE
  8
0
 62
7
 10
3304.251
 20
68946.793
 30
0
 11
3304.251
 21
68936.810
 31
0
  0
LINE
  8
0
 62
7
 10
3304.251
 20
68936.810
 30
0
 11
3294.269
 21
68936.810
 31
0
999
- - - Line Data - - -
  0
LINE
  8
0
 62
4
 10
0.000
 20
66985.664
 30
0
 11
542.910
 21
67087.815
 31
0
  0
LINE
  8
0
 62
4
 10
542.910
 20
67087.815
 30
0
 11
748.290
 21
67110.476
 31
0
  0
LINE
  8
0
 62
4
 10
748.290
 20
67110.476
 30
0
 11
795.620
 21
67176.401
 31
0
  0
LINE
  8
0
 62
4
 10
795.620
 20
67176.401
 30
0
 11
835.620
 21
67216.392
 31
0
  0
LINE
  8
0
 62
4
 10
835.620
 20
67216.392
 30
0
 11
863.620
 21
67216.392
 31
0
  0
LINE
  8
0
 62
4
 10
863.620
 20
67216.392
 30
0
 11
999.840
 21
67296.057
 31
0
  0
LINE
  8
0
 62
4
 10
999.840
 20
67296.057
 30
0
 11
1246.580
 21
67398.201
 31
0
  0
LINE
  8
0
 62
4
 10
1246.580
 20
67398.201
 30
0
 11
1262.630
 21
67408.337
 31
0
  0
LINE
  8
0
 62
4
 10
1262.630
 20
67408.337
 30
0
 11
1438.670
 21
67496.089
 31
0
  0
LINE
  8
0
 62
4
 10
1438.670
 20
67496.089
 30
0
 11
1576.360
 21
67582.632
 31
0
  0
LINE
  8
0
 62
4
 10
1576.360
 20
67582.632
 30
0
 11
1653.170
 21
67607.542
 31
0
  0
LINE
  8
0
 62
4
 10
1653.170
 20
67607.542
 30
0
 11
1771.840
 21
67648.257
 31
0
  0
LINE
  8
0
 62
4
 10
1771.840
 20
67648.257
 30
0
 11
2065.180
 21
67984.644
 31
0
  0
LINE
  8
0
 62
4
 10
2065.180
 20
67984.644
 30
0
 11
2118.050
 21
68013.757
 31
0
  0
LINE
  8
0
 62
4
 10
2118.050
 20
68013.757
 30
0
 11
2221.020
 21
68051.338
 31
0
  0
LINE
  8
0
 62
4
 10
2221.020
 20
68051.338
 30
0
 11
2400.710
 21
68155.320
 31
0
  0
LINE
  8
0
 62
4
 10
2400.710
 20
68155.320
 30
0
 11
2478.740
 21
68265.000
 31
0
  0
LINE
  8
0
 62
4
 10
2478.740
 20
68265.000
 30
0
 11
2494.340
 21
68277.817
 31
0
  0
LINE
  8
0
 62
4
 10
2494.340
 20
68277.817
 30
0
 11
2503.940
 21
68276.851
 31
0
  0
LINE
  8
0
 62
4
 10
2503.940
 20
68276.851
 30
0
 11
2513.540
 21
68219.751
 31
0
  0
LINE
  8
0
 62
4
 10
2513.540
 20
68219.751
 30
0
 11
2523.140
 21
68224.409
 31
0
  0
LINE
  8
0
 62
4
 10
2523.140
 20
68224.409
 30
0
 11
2532.740
 21
68229.104
 31
0
  0
LINE
  8
0
 62
4
 10
2532.740
 20
68229.104
 30
0
 11
2542.340
 21
68233.879
 31
0
  0
LINE
  8
0
 62
4
 10
2542.340
 20
68233.879
 30
0
 11
2551.940
 21
68238.713
 31
0
  0
LINE
  8
0
 62
4
 10
2551.940
 20
68238.713
 30
0
 11
2561.540
 21
68243.621
 31
0
  0
LINE
  8
0
 62
4
 10
2561.540
 20
68243.621
 30
0
 11
2571.140
 21
68248.638
 31
0
  0
LINE
  8
0
 62
4
 10
2571.140
 20
68248.638
 30
0
 11
2580.740
 21
68253.787
 31
0
  0
LINE
  8
0
 62
4
 10
2580.740
 20
68253.787
 30
0
 11
2590.340
 21
68259.097
 31
0
  0
LINE
  8
0
 62
4
 10
2590.340
 20
68259.097
 30
0
 11
2599.940
 21
68264.641
 31
0
  0
LINE
  8
0
 62
4
 10
2599.940
 20
68264.641
 30
0
 11
2609.540
 21
68270.508
 31
0
  0
LINE
  8
0
 62
4
 10
2609.540
 20
68270.508
 30
0
 11
2619.140
 21
68276.924
 31
0
  0
LINE
  8
0
 62
4
 10
2619.140
 20
68276.924
 30
0
 11
2628.740
 21
68284.409
 31
0
  0
LINE
  8
0
 62
4
 10
2628.740
 20
68284.409
 30
0
 11
2638.340
 21
68298.801
 31
0
  0
LINE
  8
0
 62
4
 10
2638.340
 20
68298.801
 30
0
 11
2641.340
 21
68330.068
 31
0
  0
LINE
  8
0
 62
4
 10
2641.340
 20
68330.068
 30
0
 11
2731.380
 21
68398.345
 31
0
  0
LINE
  8
0
 62
4
 10
2731.380
 20
68398.345
 30
0
 11
2820.500
 21
68521.604
 31
0
  0
LINE
  8
0
 62
4
 10
2820.500
 20
68521.604
 30
0
 11
3016.310
 21
68710.327
 31
0
  0
LINE
  8
0
 62
4
 10
3016.310
 20
68710.327
 30
0
 11
3299.260
 21
69029.539
 31
0
999
- - - Line Data - - -
  0
LINE
  8
0
 62
4
 10
0.000
 20
66999.045
 30
0
 11
542.910
 21
67105.950
 31
0
  0
LINE
  8
0
 62
4
 10
542.910
 20
67105.950
 30
0
 11
748.290
 21
67127.695
 31
0
  0
LINE
  8
0
 62
4
 10
748.290
 20
67127.695
 30
0
 11
795.620
 21
67185.608
 31
0
  0
LINE
  8
0
 62
4
 10
795.620
 20
67185.608
 30
0
 11
835.620
 21
67229.919
 31
0
  0
LINE
  8
0
 62
4
 10
835.620
 20
67229.919
 30
0
 11
863.620
 21
67229.919
 31
0
  0
LINE
  8
0
 62
4
 10
863.620
 20
67229.919
 30
0
 11
999.840
 21
67305.703
 31
0
  0
LINE
  8
0
 62
4
 10
999.840
 20
67305.703
 30
0
 11
1246.580
 21
67406.221
 31
0
  0
LINE
  8
0
 62
4
 10
1246.580
 20
67406.221
 30
0
 11
1262.630
 21
67414.834
 31
0
  0
LINE
  8
0
 62
4
 10
1262.630
 20
67414.834
 30
0
 11
1438.670
 21
67526.191
 31
0
  0
LINE
  8
0
 62
4
 10
1438.670
 20
67526.191
 30
0
 11
1576.360
 21
67621.326
 31
0
  0
LINE
  8
0
 62
4
 10
1576.360
 20
67621.326
 30
0
 11
1653.170
 21
67650.542
 31
0
  0
LINE
  8
0
 62
4
 10
1653.170
 20
67650.542
 30
0
 11
1771.840
 21
67708.345
 31
0
  0
LINE
  8
0
 62
4
 10
1771.840
 20
67708.345
 30
0
 11
2065.180
 21
68025.637
 31
0
  0
LINE
  8
0
 62
4
 10
2065.180
 20
68025.637
 30
0
 11
2118.050
 21
68056.897
 31
0
  0
LINE
  8
0
 62
4
 10
2118.050
 20
68056.897
 30
0
 11
2221.020
 21
68082.246
 31
0
  0
LINE
  8
0
 62
4
 10
2221.020
 20
68082.246
 30
0
 11
2400.710
 21
68193.457
 31
0
  0
LINE
  8
0
 62
4
 10
2400.710
 20
68193.457
 30
0
 11
2478.740
 21
68323.389
 31
0
  0
LINE
  8
0
 62
4
 10
2478.740
 20
68323.389
 30
0
 11
2494.340
 21
68295.901
 31
0
  0
LINE
  8
0
 62
4
 10
2494.340
 20
68295.901
 30
0
 11
2503.940
 21
68300.164
 31
0
  0
LINE
  8
0
 62
4
 10
2503.940
 20
68300.164
 30
0
 11
2513.540
 21
68304.419
 31
0
  0
LINE
  8
0
 62
4
 10
2513.540
 20
68304.419
 30
0
 11
2523.140
 21
68308.682
 31
0
  0
LINE
  8
0
 62
4
 10
2523.140
 20
68308.682
 30
0
 11
2532.740
 21
68312.937
 31
0
  0
LINE
  8
0
 62
4
 10
2532.740
 20
68312.937
 30
0
 11
2542.340
 21
68317.200
 31
0
  0
LINE
  8
0
 62
4
 10
2542.340
 20
68317.200
 30
0
 11
2551.940
 21
68321.462
 31
0
  0
LINE
  8
0
 62
4
 10
2551.940
 20
68321.462
 30
0
 11
2561.540
 21
68325.718
 31
0
  0
LINE
  8
0
 62
4
 10
2561.540
 20
68325.718
 30
0
 11
2571.140
 21
68329.980
 31
0
  0
LINE
  8
0
 62
4
 10
2571.140
 20
68329.980
 30
0
 11
2580.740
 21
68334.236
 31
0
  0
LINE
  8
0
 62
4
 10
2580.740
 20
68334.236
 30
0
 11
2590.340
 21
68338.499
 31
0
  0
LINE
  8
0
 62
4
 10
2590.340
 20
68338.499
 30
0
 11
2599.940
 21
68342.761
 31
0
  0
LINE
  8
0
 62
4
 10
2599.940
 20
68342.761
 30
0
 11
2609.540
 21
68347.017
 31
0
  0
LINE
  8
0
 62
4
 10
2609.540
 20
68347.017
 30
0
 11
2619.140
 21
68351.279
 31
0
  0
LINE
  8
0
 62
4
 10
2619.140
 20
68351.279
 30
0
 11
2628.740
 21
68355.535
 31
0
  0
LINE
  8
0
 62
4
 10
2628.740
 20
68355.535
 30
0
 11
2638.340
 21
68359.797
 31
0
  0
LINE
  8
0
 62
4
 10
2638.340
 20
68359.797
 30
0
 11
2641.340
 21
68436.482
 31
0
  0
LINE
  8
0
 62
4
 10
2641.340
 20
68436.482
 30
0
 11
2731.380
 21
68457.166
 31
0
  0
LINE
  8
0
 62
4
 10
2731.380
 20
68457.166
 30
0
 11
2820.500
 21
68571.519
 31
0
  0
LINE
  8
0
 62
4
 10
2820.500
 20
68571.519
 30
0
 11
3016.310
 21
68741.836
 31
0
  0
LINE
  8
0
 62
4
 10
3016.310
 20
68741.836
 30
0
 11
3299.260
 21
69071.125
 31
0
999
- - - Symbol Data - - -
  0
LINE
  8
0
 62
4
 10
-4.991
 20
66995.718
 30
0
 11
4.991
 21
66995.718
 31
0
  0
LINE
  8
0
 62
4
 10
0.000
 20
67005.701
 30
0
 11
4.991
 21
66995.718
 31
0
  0
LINE
  8
0
 62
4
 10
0.000
 20
67005.701
 30
0
 11
-4.991
 21
66995.718
 31
0
  0
LINE
  8
0
 62
4
 10
537.919
 20
67102.622
 30
0
 11
547.901
 21
67102.622
 31
0
  0
LINE
  8
0
 62
4
 10
542.910
 20
67112.605
 30
0
 11
547.901
 21
67102.622
 31
0
  0
LINE
  8
0
 62
4
 10
542.910
 20
67112.605
 30
0
 11
537.919
 21
67102.622
 31
0
  0
LINE
  8
0
 62
4
 10
743.299
 20
67124.368
 30
0
 11
753.281
 21
67124.368
 31
0
  0
LINE
  8
0
 62
4
 10
748.290
 20
67134.350
 30
0
 11
753.281
 21
67124.368
 31
0
  0
LINE
  8
0
 62
4
 10
748.290
 20
67134.350
 30
0
 11
743.299
 21
67124.368
 31
0
  0
LINE
  8
0
 62
4
 10
790.629
 20
67182.280
 30
0
 11
800.611
 21
67182.280
 31
0
  0
LINE
  8
0
 62
4
 10
795.620
 20
67192.263
 30
0
 11
800.611
 21
67182.280
 31
0
  0
LINE
  8
0
 62
4
 10
795.620
 20
67192.263
 30
0
 11
790.629
 21
67182.280
 31
0
  0
LINE
  8
0
 62
4
 10
830.629
 20
67226.592
 30
0
 11
840.611
 21
67226.592
 31
0
  0
LINE
  8
0
 62
4
 10
835.620
 20
67236.575
 30
0
 11
840.611
 21
67226.592
 31
0
  0
LINE
  8
0
 62
4
 10
835.620
 20
67236.575
 30
0
 11
830.629
 21
67226.592
 31
0
  0
LINE
  8
0
 62
4
 10
858.629
 20
67226.592
 30
0
 11
868.611
 21
67226.592
 31
0
  0
LINE
  8
0
 62
4
 10
863.620
 20
67236.575
 30
0
 11
868.611
 21
67226.592
 31
0
  0
LINE
  8
0
 62
4
 10
863.620
 20
67236.575
 30
0
 11
858.629
 21
67226.592
 31
0
  0
LINE
  8
0
 62
4
 10
994.849
 20
67302.376
 30
0
 11
1004.831
 21
67302.376
 31
0
  0
LINE
  8
0
 62
4
 10
999.840
 20
67312.358
 30
0
 11
1004.831
 21
67302.376
 31
0
  0
LINE
  8
0
 62
4
 10
999.840
 20
67312.358
 30
0
 11
994.849
 21
67302.376
 31
0
  0
LINE
  8
0
 62
4
 10
1241.589
 20
67402.893
 30
0
 11
1251.571
 21
67402.893
 31
0
  0
LINE
  8
0
 62
4
 10
1246.580
 20
67412.876
 30
0
 11
1251.571
 21
67402.893
 31
0
  0
LINE
  8
0
 62
4
 10
1246.580
 20
67412.876
 30
0
 11
1241.589
 21
67402.893
 31
0
  0
LINE
  8
0
 62
4
 10
1257.639
 20
67411.506
 30
0
 11
1267.621
 21
67411.506
 31
0
  0
LINE
  8
0
 62
4
 10
1262.630
 20
67421.489
 30
0
 11
1267.621
 21
67411.506
 31
0
  0
LINE
  8
0
 62
4
 10
1262.630
 20
67421.489
 30
0
 11
1257.639
 21
67411.506
 31
0
  0
LINE
  8
0
 62
4
 10
1433.679
 20
67522.864
 30
0
 11
1443.661
 21
67522.864
 31
0
  0
LINE
  8
0
 62
4
 10
1438.670
 20
67532.847
 30
0
 11
1443.661
 21
67522.864
 31
0
  0
LINE
  8
0
 62
4
 10
1438.670
 20
67532.847
 30
0
 11
1433.679
 21
67522.864
 31
0
  0
LINE
  8
0
 62
4
 10
1571.369
 20
67617.998
 30
0
 11
1581.351
 21
67617.998
 31
0
  0
LINE
  8
0
 62
4
 10
1576.360
 20
67627.981
 30
0
 11
1581.351
 21
67617.998
 31
0
  0
LINE
  8
0
 62
4
 10
1576.360
 20
67627.981
 30
0
 11
1571.369
 21
67617.998
 31
0
  0
LINE
  8
0
 62
4
 10
1648.179
 20
67647.214
 30
0
 11
1658.161
 21
67647.214
 31
0
  0
LINE
  8
0
 62
4
 10
1653.170
 20
67657.197
 30
0
 11
1658.161
 21
67647.214
 31
0
  0
LINE
  8
0
 62
4
 10
1653.170
 20
67657.197
 30
0
 11
1648.179
 21
67647.214
 31
0
  0
LINE
  8
0
 62
4
 10
1766.849
 20
67705.017
 30
0
 11
1776.831
 21
67705.017
 31
0
  0
LINE
  8
0
 62
4
 10
1771.840
 20
67715.000
 30
0
 11
1776.831
 21
67705.017
 31
0
  0
LINE
  8
0
 62
4
 10
1771.840
 20
67715.000
 30
0
 11
1766.849
 21
67705.017
 31
0
  0
LINE
  8
0
 62
4
 10
2060.189
 20
68022.310
 30
0
 11
2070.171
 21
68022.310
 31
0
  0
LINE
  8
0
 62
4
 10
2065.180
 20
68032.292
 30
0
 11
2070.171
 21
68022.310
 31
0
  0
LINE
  8
0
 62
4
 10
2065.180
 20
68032.292
 30
0
 11
2060.189
 21
68022.310
 31
0
  0
LINE
  8
0
 62
4
 10
2113.059
 20
68053.569
 30
0
 11
2123.041
 21
68053.569
 31
0
  0
LINE
  8
0
 62
4
 10
2118.050
 20
68063.552
 30
0
 11
2123.041
 21
68053.569
 31
0
  0
LINE
  8
0
 62
4
 10
2118.050
 20
68063.552
 30
0
 11
2113.059
 21
68053.569
 31
0
  0
LINE
  8
0
 62
4
 10
2216.029
 20
68078.919
 30
0
 11
2226.011
 21
68078.919
 31
0
  0
LINE
  8
0
 62
4
 10
2221.020
 20
68088.901
 30
0
 11
2226.011
 21
68078.919
 31
0
  0
LINE
  8
0
 62
4
 10
2221.020
 20
68088.901
 30
0
 11
2216.029
 21
68078.919
 31
0
  0
LINE
  8
0
 62
4
 10
2395.719
 20
68190.129
 30
0
 11
2405.701
 21
68190.129
 31
0
  0
LINE
  8
0
 62
4
 10
2400.710
 20
68200.112
 30
0
 11
2405.701
 21
68190.129
 31
0
  0
LINE
  8
0
 62
4
 10
2400.710
 20
68200.112
 30
0
 11
2395.719
 21
68190.129
 31
0
  0
LINE
  8
0
 62
4
 10
2473.749
 20
68320.061
 30
0
 11
2483.731
 21
68320.061
 31
0
  0
LINE
  8
0
 62
4
 10
2478.740
 20
68330.044
 30
0
 11
2483.731
 21
68320.061
 31
0
  0
LINE
  8
0
 62
4
 10
2478.740
 20
68330.044
 30
0
 11
2473.749
 21
68320.061
 31
0
  0
LINE
  8
0
 62
4
 10
2489.349
 20
68292.573
 30
0
 11
2499.331
 21
68292.573
 31
0
  0
LINE
  8
0
 62
4
 10
2494.340
 20
68302.556
 30
0
 11
2499.331
 21
68292.573
 31
0
  0
LINE
  8
0
 62
4
 10
2494.340
 20
68302.556
 30
0
 11
2489.349
 21
68292.573
 31
0
  0
LINE
  8
0
 62
4
 10
2498.949
 20
68296.836
 30
0
 11
2508.931
 21
68296.836
 31
0
  0
LINE
  8
0
 62
4
 10
2503.940
 20
68306.819
 30
0
 11
2508.931
 21
68296.836
 31
0
  0
LINE
  8
0
 62
4
 10
2503.940
 20
68306.819
 30
0
 11
2498.949
 21
68296.836
 31
0
  0
LINE
  8
0
 62
4
 10
2508.549
 20
68301.091
 30
0
 11
2518.531
 21
68301.091
 31
0
  0
LINE
  8
0
 62
4
 10
2513.540
 20
68311.074
 30
0
 11
2518.531
 21
68301.091
 31
0
  0
LINE
  8
0
 62
4
 10
2513.540
 20
68311.074
 30
0
 11
2508.549
 21
68301.091
 31
0
  0
LINE
  8
0
 62
4
 10
2518.149
 20
68305.354
 30
0
 11
2528.131
 21
68305.354
 31
0
  0
LINE
  8
0
 62
4
 10
2523.140
 20
68315.337
 30
0
 11
2528.131
 21
68305.354
 31
0
  0
LINE
  8
0
 62
4
 10
2523.140
 20
68315.337
 30
0
 11
2518.149
 21
68305.354
 31
0
  0
LINE
  8
0
 62
4
 10
2527.749
 20
68309.609
 30
0
 11
2537.731
 21
68309.609
 31
0
  0
LINE
  8
0
 62
4
 10
2532.740
 20
68319.592
 30
0
 11
2537.731
 21
68309.609
 31
0
  0
LINE
  8
0
 62
4
 10
2532.740
 20
68319.592
 30
0
 11
2527.749
 21
68309.609
 31
0
  0
LINE
  8
0
 62
4
 10
2537.349
 20
68313.872
 30
0
 11
2547.331
 21
68313.872
 31
0
  0
LINE
  8
0
 62
4
 10
2542.340
 20
68323.855
 30
0
 11
2547.331
 21
68313.872
 31
0
  0
LINE
  8
0
 62
4
 10
2542.340
 20
68323.855
 30
0
 11
2537.349
 21
68313.872
 31
0
  0
LINE
  8
0
 62
4
 10
2546.949
 20
68318.135
 30
0
 11
2556.931
 21
68318.135
 31
0
  0
LINE
  8
0
 62
4
 10
2551.940
 20
68328.118
 30
0
 11
2556.931
 21
68318.135
 31
0
  0
LINE
  8
0
 62
4
 10
2551.940
 20
68328.118
 30
0
 11
2546.949
 21
68318.135
 31
0
  0
LINE
  8
0
 62
4
 10
2556.549
 20
68322.390
 30
0
 11
2566.531
 21
68322.390
 31
0
  0
LINE
  8
0
 62
4
 10
2561.540
 20
68332.373
 30
0
 11
2566.531
 21
68322.390
 31
0
  0
LINE
  8
0
 62
4
 10
2561.540
 20
68332.373
 30
0
 11
2556.549
 21
68322.390
 31
0
  0
LINE
  8
0
 62
4
 10
2566.149
 20
68326.653
 30
0
 11
2576.131
 21
68326.653
 31
0
  0
LINE
  8
0
 62
4
 10
2571.140
 20
68336.636
 30
0
 11
2576.131
 21
68326.653
 31
0
  0
LINE
  8
0
 62
4
 10
2571.140
 20
68336.636
 30
0
 11
2566.149
 21
68326.653
 31
0
  0
LINE
  8
0
 62
4
 10
2575.749
 20
68330.908
 30
0
 11
2585.731
 21
68330.908
 31
0
  0
LINE
  8
0
 62
4
 10
2580.740
 20
68340.891
 30
0
 11
2585.731
 21
68330.908
 31
0
  0
LINE
  8
0
 62
4
 10
2580.740
 20
68340.891
 30
0
 11
2575.749
 21
68330.908
 31
0
  0
LINE
  8
0
 62
4
 10
2585.349
 20
68335.171
 30
0
 11
2595.331
 21
68335.171
 31
0
  0
LINE
  8
0
 62
4
 10
2590.340
 20
68345.154
 30
0
 11
2595.331
 21
68335.171
 31
0
  0
LINE
  8
0
 62
4
 10
2590.340
 20
68345.154
 30
0
 11
2585.349
 21
68335.171
 31
0
  0
LINE
  8
0
 62
4
 10
2594.949
 20
68339.434
 30
0
 11
2604.931
 21
68339.434
 31
0
  0
LINE
  8
0
 62
4
 10
2599.940
 20
68349.416
 30
0
 11
2604.931
 21
68339.434
 31
0
  0
LINE
  8
0
 62
4
 10
2599.940
 20
68349.416
 30
0
 11
2594.949
 21
68339.434
 31
0
  0
LINE
  8
0
 62
4
 10
2604.549
 20
68343.689
 30
0
 11
2614.531
 21
68343.689
 31
0
  0
LINE
  8
0
 62
4
 10
2609.540
 20
68353.672
 30
0
 11
2614.531
 21
68343.689
 31
0
  0
LINE
  8
0
 62
4
 10
2609.540
 20
68353.672
 30
0
 11
2604.549
 21
68343.689
 31
0
  0
LINE
  8
0
 62
4
 10
2614.149
 20
68347.952
 30
0
 11
2624.131
 21
68347.952
 31
0
  0
LINE
  8
0
 62
4
 10
2619.140
 20
68357.934
 30
0
 11
2624.131
 21
68347.952
 31
0
  0
LINE
  8
0
 62
4
 10
2619.140
 20
68357.934
 30
0
 11
2614.149
 21
68347.952
 31
0
  0
LINE
  8
0
 62
4
 10
2623.749
 20
68352.207
 30
0
 11
2633.731
 21
68352.207
 31
0
  0
LINE
  8
0
 62
4
 10
2628.740
 20
68362.190
 30
0
 11
2633.731
 21
68352.207
 31
0
  0
LINE
  8
0
 62
4
 10
2628.740
 20
68362.190
 30
0
 11
2623.749
 21
68352.207
 31
0
  0
LINE
  8
0
 62
4
 10
2633.349
 20
68356.470
 30
0
 11
2643.331
 21
68356.470
 31
0
  0
LINE
  8
0
 62
4
 10
2638.340
 20
68366.452
 30
0
 11
2643.331
 21
68356.470
 31
0
  0
LINE
  8
0
 62
4
 10
2638.340
 20
68366.452
 30
0
 11
2633.349
 21
68356.470
 31
0
  0
LINE
  8
0
 62
4
 10
2636.349
 20
68433.154
 30
0
 11
2646.331
 21
68433.154
 31
0
  0
LINE
  8
0
 62
4
 10
2641.340
 20
68443.137
 30
0
 11
2646.331
 21
68433.154
 31
0
  0
LINE
  8
0
 62
4
 10
2641.340
 20
68443.137
 30
0
 11
2636.349
 21
68433.154
 31
0
  0
LINE
  8
0
 62
4
 10
2726.389
 20
68453.838
 30
0
 11
2736.371
 21
68453.838
 31
0
  0
LINE
  8
0
 62
4
 10
2731.380
 20
68463.821
 30
0
 11
2736.371
 21
68453.838
 31
0
  0
LINE
  8
0
 62
4
 10
2731.380
 20
68463.821
 30
0
 11
2726.389
 21
68453.838
 31
0
  0
LINE
  8
0
 62
4
 10
2815.509
 20
68568.191
 30
0
 11
2825.491
 21
68568.191
 31
0
  0
LINE
  8
0
 62
4
 10
2820.500
 20
68578.174
 30
0
 11
2825.491
 21
68568.191
 31
0
  0
LINE
  8
0
 62
4
 10
2820.500
 20
68578.174
 30
0
 11
2815.509
 21
68568.191
 31
0
  0
LINE
  8
0
 62
4
 10
3011.319
 20
68738.508
 30
0
 11
3021.301
 21
68738.508
 31
0
  0
LINE
  8
0
 62
4
 10
3016.310
 20
68748.491
 30
0
 11
3021.301
 21
68738.508
 31
0
  0
LINE
  8
0
 62
4
 10
3016.310
 20
68748.491
 30
0
 11
3011.319
 21
68738.508
 31
0
  0
LINE
  8
0
 62
4
 10
3294.269
 20
69067.798
 30
0
 11
3304.251
 21
69067.798
 31
0
  0
LINE
  8
0
 62
4
 10
3299.260
 20
69077.781
 30
0
 11
3304.251
 21
69067.798
 31
0
  0
LINE
  8
0
 62
4
 10
3299.260
 20
69077.781
 30
0
 11
3294.269
 21
69067.798
 31
0
999
- - - Line Data - - -
  0
LINE
  8
0
 62
4
 10
0.000
 20
67000.247
 30
0
 11
542.910
 21
67107.473
 31
0
  0
LINE
  8
0
 62
4
 10
542.910
 20
67107.473
 30
0
 11
748.290
 21
67129.080
 31
0
  0
LINE
  8
0
 62
4
 10
748.290
 20
67129.080
 30
0
 11
795.620
 21
67186.187
 31
0
  0
LINE
  8
0
 62
4
 10
795.620
 20
67186.187
 30
0
 11
835.620
 21
67230.352
 31
0
  0
LINE
  8
0
 62
4
 10
835.620
 20
67230.352
 30
0
 11
863.620
 21
67230.352
 31
0
  0
LINE
  8
0
 62
4
 10
863.620
 20
67230.352
 30
0
 11
999.840
 21
67306.890
 31
0
  0
LINE
  8
0
 62
4
 10
999.840
 20
67306.890
 30
0
 11
1246.580
 21
67406.792
 31
0
  0
LINE
  8
0
 62
4
 10
1246.580
 20
67406.792
 30
0
 11
1262.630
 21
67415.449
 31
0
  0
LINE
  8
0
 62
4
 10
1262.630
 20
67415.449
 30
0
 11
1438.670
 21
67531.201
 31
0
  0
LINE
  8
0
 62
4
 10
1438.670
 20
67531.201
 30
0
 11
1576.360
 21
67629.229
 31
0
  0
LINE
  8
0
 62
4
 10
1576.360
 20
67629.229
 30
0
 11
1653.170
 21
67660.137
 31
0
  0
LINE
  8
0
 62
4
 10
1653.170
 20
67660.137
 30
0
 11
1771.840
 21
67721.375
 31
0
  0
LINE
  8
0
 62
4
 10
1771.840
 20
67721.375
 30
0
 11
2065.180
 21
68044.958
 31
0
  0
LINE
  8
0
 62
4
 10
2065.180
 20
68044.958
 30
0
 11
2118.050
 21
68079.639
 31
0
  0
LINE
  8
0
 62
4
 10
2118.050
 20
68079.639
 30
0
 11
2221.020
 21
68099.619
 31
0
  0
LINE
  8
0
 62
4
 10
2221.020
 20
68099.619
 30
0
 11
2400.710
 21
68202.781
 31
0
  0
LINE
  8
0
 62
4
 10
2400.710
 20
68202.781
 30
0
 11
2478.740
 21
68342.490
 31
0
  0
LINE
  8
0
 62
4
 10
2478.740
 20
68342.490
 30
0
 11
2494.340
 21
68491.267
 31
0
  0
LINE
  8
0
 62
4
 10
2494.340
 20
68491.267
 30
0
 11
2638.340
 21
68506.201
 31
0
  0
LINE
  8
0
 62
4
 10
2638.340
 20
68506.201
 30
0
 11
2641.340
 21
68506.201
 31
0
  0
LINE
  8
0
 62
4
 10
2641.340
 20
68506.201
 30
0
 11
2731.380
 21
68522.483
 31
0
  0
LINE
  8
0
 62
4
 10
2731.380
 20
68522.483
 30
0
 11
2820.500
 21
68581.663
 31
0
  0
LINE
  8
0
 62
4
 10
2820.500
 20
68581.663
 30
0
 11
3016.310
 21
68758.542
 31
0
  0
LINE
  8
0
 62
4
 10
3016.310
 20
68758.542
 30
0
 11
3299.260
 21
69089.495
 31
0
999
- - - Symbol Data - - -
  0
LINE
  8
0
 62
4
 10
-4.991
 20
67003.574
 30
0
 11
4.991
 21
67003.574
 31
0
  0
LINE
  8
0
 62
4
 10
0.000
 20
66993.591
 30
0
 11
4.991
 21
67003.574
 31
0
  0
LINE
  8
0
 62
4
 10
0.000
 20
66993.591
 30
0
 11
-4.991
 21
67003.574
 31
0
  0
LINE
  8
0
 62
4
 10
537.919
 20
67110.801
 30
0
 11
547.901
 21
67110.801
 31
0
  0
LINE
  8
0
 62
4
 10
542.910
 20
67100.818
 30
0
 11
547.901
 21
67110.801
 31
0
  0
LINE
  8
0
 62
4
 10
542.910
 20
67100.818
 30
0
 11
537.919
 21
67110.801
 31
0
  0
LINE
  8
0
 62
4
 10
743.299
 20
67132.407
 30
0
 11
753.281
 21
67132.407
 31
0
  0
LINE
  8
0
 62
4
 10
748.290
 20
67122.424
 30
0
 11
753.281
 21
67132.407
 31
0
  0
LINE
  8
0
 62
4
 10
748.290
 20
67122.424
 30
0
 11
743.299
 21
67132.407
 31
0
  0
LINE
  8
0
 62
4
 10
790.629
 20
67189.514
 30
0
 11
800.611
 21
67189.514
 31
0
  0
LINE
  8
0
 62
4
 10
795.620
 20
67179.531
 30
0
 11
800.611
 21
67189.514
 31
0
  0
LINE
  8
0
 62
4
 10
795.620
 20
67179.531
 30
0
 11
790.629
 21
67189.514
 31
0
  0
LINE
  8
0
 62
4
 10
830.629
 20
67233.679
 30
0
 11
840.611
 21
67233.679
 31
0
  0
LINE
  8
0
 62
4
 10
835.620
 20
67223.696
 30
0
 11
840.611
 21
67233.679
 31
0
  0
LINE
  8
0
 62
4
 10
835.620
 20
67223.696
 30
0
 11
830.629
 21
67233.679
 31
0
  0
LINE
  8
0
 62
4
 10
858.629
 20
67233.679
 30
0
 11
868.611
 21
67233.679
 31
0
  0
LINE
  8
0
 62
4
 10
863.620
 20
67223.696
 30
0
 11
868.611
 21
67233.679
 31
0
  0
LINE
  8
0
 62
4
 10
863.620
 20
67223.696
 30
0
 11
858.629
 21
67233.679
 31
0
  0
LINE
  8
0
 62
4
 10
994.849
 20
67310.217
 30
0
 11
1004.831
 21
67310.217
 31
0
  0
LINE
  8
0
 62
4
 10
999.840
 20
67300.235
 30
0
 11
1004.831
 21
67310.217
 31
0
  0
LINE
  8
0
 62
4
 10
999.840
 20
67300.235
 30
0
 11
994.849
 21
67310.217
 31
0
  0
LINE
  8
0
 62
4
 10
1241.589
 20
67410.120
 30
0
 11
1251.571
 21
67410.120
 31
0
  0
LINE
  8
0
 62
4
 10
1246.580
 20
67400.137
 30
0
 11
1251.571
 21
67410.120
 31
0
  0
LINE
  8
0
 62
4
 10
1246.580
 20
67400.137
 30
0
 11
1241.589
 21
67410.120
 31
0
  0
LINE
  8
0
 62
4
 10
1257.639
 20
67418.777
 30
0
 11
1267.621
 21
67418.777
 31
0
  0
LINE
  8
0
 62
4
 10
1262.630
 20
67408.794
 30
0
 11
1267.621
 21
67418.777
 31
0
  0
LINE
  8
0
 62
4
 10
1262.630
 20
67408.794
 30
0
 11
1257.639
 21
67418.777
 31
0
  0
LINE
  8
0
 62
4
 10
1433.679
 20
67534.529
 30
0
 11
1443.661
 21
67534.529
 31
0
  0
LINE
  8
0
 62
4
 10
1438.670
 20
67524.546
 30
0
 11
1443.661
 21
67534.529
 31
0
  0
LINE
  8
0
 62
4
 10
1438.670
 20
67524.546
 30
0
 11
1433.679
 21
67534.529
 31
0
  0
LINE
  8
0
 62
4
 10
1571.369
 20
67632.556
 30
0
 11
1581.351
 21
67632.556
 31
0
  0
LINE
  8
0
 62
4
 10
1576.360
 20
67622.573
 30
0
 11
1581.351
 21
67632.556
 31
0
  0
LINE
  8
0
 62
4
 10
1576.360
 20
67622.573
 30
0
 11
1571.369
 21
67632.556
 31
0
  0
LINE
  8
0
 62
4
 10
1648.179
 20
67663.464
 30
0
 11
1658.161
 21
67663.464
 31
0
  0
LINE
  8
0
 62
4
 10
1653.170
 20
67653.482
 30
0
 11
1658.161
 21
67663.464
 31
0
  0
LINE
  8
0
 62
4
 10
1653.170
 20
67653.482
 30
0
 11
1648.179
 21
67663.464
 31
0
  0
LINE
  8
0
 62
4
 10
1766.849
 20
67724.702
 30
0
 11
1776.831
 21
67724.702
 31
0
  0
LINE
  8
0
 62
4
 10
1771.840
 20
67714.719
 30
0
 11
1776.831
 21
67724.702
 31
0
  0
LINE
  8
0
 62
4
 10
1771.840
 20
67714.719
 30
0
 11
1766.849
 21
67724.702
 31
0
  0
LINE
  8
0
 62
4
 10
2060.189
 20
68048.286
 30
0
 11
2070.171
 21
68048.286
 31
0
  0
LINE
  8
0
 62
4
 10
2065.180
 20
68038.303
 30
0
 11
2070.171
 21
68048.286
 31
0
  0
LINE
  8
0
 62
4
 10
2065.180
 20
68038.303
 30
0
 11
2060.189
 21
68048.286
 31
0
  0
LINE
  8
0
 62
4
 10
2113.059
 20
68082.966
 30
0
 11
2123.041
 21
68082.966
 31
0
  0
LINE
  8
0
 62
4
 10
2118.050
 20
68072.984
 30
0
 11
2123.041
 21
68082.966
 31
0
  0
LINE
  8
0
 62
4
 10
2118.050
 20
68072.984
 30
0
 11
2113.059
 21
68082.966
 31
0
  0
LINE
  8
0
 62
4
 10
2216.029
 20
68102.947
 30
0
 11
2226.011
 21
68102.947
 31
0
  0
LINE
  8
0
 62
4
 10
2221.020
 20
68092.964
 30
0
 11
2226.011
 21
68102.947
 31
0
  0
LINE
  8
0
 62
4
 10
2221.020
 20
68092.964
 30
0
 11
2216.029
 21
68102.947
 31
0
  0
LINE
  8
0
 62
4
 10
2395.719
 20
68206.108
 30
0
 11
2405.701
 21
68206.108
 31
0
  0
LINE
  8
0
 62
4
 10
2400.710
 20
68196.126
 30
0
 11
2405.701
 21
68206.108
 31
0
  0
LINE
  8
0
 62
4
 10
2400.710
 20
68196.126
 30
0
 11
2395.719
 21
68206.108
 31
0
  0
LINE
  8
0
 62
4
 10
2473.749
 20
68345.818
 30
0
 11
2483.731
 21
68345.818
 31
0
  0
LINE
  8
0
 62
4
 10
2478.740
 20
68335.835
 30
0
 11
2483.731
 21
68345.818
 31
0
  0
LINE
  8
0
 62
4
 10
2478.740
 20
68335.835
 30
0
 11
2473.749
 21
68345.818
 31
0
  0
LINE
  8
0
 62
4
 10
2489.349
 20
68494.595
 30
0
 11
2499.331
 21
68494.595
 31
0
  0
LINE
  8
0
 62
4
 10
2494.340
 20
68484.612
 30
0
 11
2499.331
 21
68494.595
 31
0
  0
LINE
  8
0
 62
4
 10
2494.340
 20
68484.612
 30
0
 11
2489.349
 21
68494.595
 31
0
  0
LINE
  8
0
 62
4
 10
2633.349
 20
68509.529
 30
0
 11
2643.331
 21
68509.529
 31
0
  0
LINE
  8
0
 62
4
 10
2638.340
 20
68499.546
 30
0
 11
2643.331
 21
68509.529
 31
0
  0
LINE
  8
0
 62
4
 10
2638.340
 20
68499.546
 30
0
 11
2633.349
 21
68509.529
 31
0
  0
LINE
  8
0
 62
4
 10
2636.349
 20
68509.529
 30
0
 11
2646.331
 21
68509.529
 31
0
  0
LINE
  8
0
 62
4
 10
2641.340
 20
68499.546
 30
0
 11
2646.331
 21
68509.529
 31
0
  0
LINE
  8
0
 62
4
 10
2641.340
 20
68499.546
 30
0
 11
2636.349
 21
68509.529
 31
0
  0
LINE
  8
0
 62
4
 10
2726.389
 20
68525.810
 30
0
 11
2736.371
 21
68525.810
 31
0
  0
LINE
  8
0
 62
4
 10
2731.380
 20
68515.828
 30
0
 11
2736.371
 21
68525.810
 31
0
  0
LINE
  8
0
 62
4
 10
2731.380
 20
68515.828
 30
0
 11
2726.389
 21
68525.810
 31
0
  0
LINE
  8
0
 62
4
 10
2815.509
 20
68584.990
 30
0
 11
2825.491
 21
68584.990
 31
0
  0
LINE
  8
0
 62
4
 10
2820.500
 20
68575.007
 30
0
 11
2825.491
 21
68584.990
 31
0
  0
LINE
  8
0
 62
4
 10
2820.500
 20
68575.007
 30
0
 11
2815.509
 21
68584.990
 31
0
  0
LINE
  8
0
 62
4
 10
3011.319
 20
68761.870
 30
0
 11
3021.301
 21
68761.870
 31
0
  0
LINE
  8
0
 62
4
 10
3016.310
 20
68751.887
 30
0
 11
3021.301
 21
68761.870
 31
0
  0
LINE
  8
0
 62
4
 10
3016.310
 20
68751.887
 30
0
 11
3011.319
 21
68761.870
 31
0
  0
LINE
  8
0
 62
4
 10
3294.269
 20
69092.822
 30
0
 11
3304.251
 21
69092.822
 31
0
  0
LINE
  8
0
 62
4
 10
3299.260
 20
69082.840
 30
0
 11
3304.251
 21
69092.822
 31
0
  0
LINE
  8
0
 62
4
 10
3299.260
 20
69082.840
 30
0
 11
3294.269
 21
69092.822
 31
0
999
- - - Line Data - - -
  0
LINE
  8
0
 62
4
 10
0.000
 20
67006.853
 30
0
 11
542.910
 21
67115.083
 31
0
  0
LINE
  8
0
 62
4
 10
542.910
 20
67115.083
 30
0
 11
748.290
 21
67136.096
 31
0
  0
LINE
  8
0
 62
4
 10
748.290
 20
67136.096
 30
0
 11
795.620
 21
67189.248
 31
0
  0
LINE
  8
0
 62
4
 10
795.620
 20
67189.248
 30
0
 11
835.620
 21
67234.834
 31
0
  0
LINE
  8
0
 62
4
 10
835.620
 20
67234.834
 30
0
 11
863.620
 21
67234.834
 31
0
  0
LINE
  8
0
 62
4
 10
863.620
 20
67234.834
 30
0
 11
999.840
 21
67311.855
 31
0
  0
LINE
  8
0
 62
4
 10
999.840
 20
67311.855
 30
0
 11
1246.580
 21
67410.989
 31
0
  0
LINE
  8
0
 62
4
 10
1246.580
 20
67410.989
 30
0
 11
1262.630
 21
67419.126
 31
0
  0
LINE
  8
0
 62
4
 10
1262.630
 20
67419.126
 30
0
 11
1438.670
 21
67541.016
 31
0
  0
LINE
  8
0
 62
4
 10
1438.670
 20
67541.016
 30
0
 11
1576.360
 21
67645.093
 31
0
  0
LINE
  8
0
 62
4
 10
1576.360
 20
67645.093
 30
0
 11
1653.170
 21
67678.645
 31
0
  0
LINE
  8
0
 62
4
 10
1653.170
 20
67678.645
 30
0
 11
1771.840
 21
67745.200
 31
0
  0
LINE
  8
0
 62
4
 10
1771.840
 20
67745.200
 30
0
 11
2065.180
 21
68087.549
 31
0
  0
LINE
  8
0
 62
4
 10
2065.180
 20
68087.549
 30
0
 11
2118.050
 21
68132.065
 31
0
  0
LINE
  8
0
 62
4
 10
2118.050
 20
68132.065
 30
0
 11
2221.020
 21
68147.373
 31
0
  0
LINE
  8
0
 62
4
 10
2221.020
 20
68147.373
 30
0
 11
2400.710
 21
68235.996
 31
0
  0
LINE
  8
0
 62
4
 10
2400.710
 20
68235.996
 30
0
 11
2478.740
 21
68400.879
 31
0
  0
LINE
  8
0
 62
4
 10
2478.740
 20
68400.879
 30
0
 11
2494.340
 21
68520.769
 31
0
  0
LINE
  8
0
 62
4
 10
2494.340
 20
68520.769
 30
0
 11
2638.340
 21
68539.182
 31
0
  0
LINE
  8
0
 62
4
 10
2638.340
 20
68539.182
 30
0
 11
2641.340
 21
68539.182
 31
0
  0
LINE
  8
0
 62
4
 10
2641.340
 20
68539.182
 30
0
 11
2731.380
 21
68573.196
 31
0
  0
LINE
  8
0
 62
4
 10
2731.380
 20
68573.196
 30
0
 11
2820.500
 21
68610.498
 31
0
  0
LINE
  8
0
 62
4
 10
2820.500
 20
68610.498
 30
0
 11
3016.310
 21
68792.659
 31
0
  0
LINE
  8
0
 62
4
 10
3016.310
 20
68792.659
 30
0
 11
3299.260
 21
69126.475
 31
0
999
- - - Symbol Data - - -
  0
LINE
  8
0
 62
4
 10
-4.991
 20
67001.862
 30
0
 11
4.991
 21
67011.844
 31
0
  0
LINE
  8
0
 62
4
 10
-4.991
 20
67011.844
 30
0
 11
4.991
 21
67001.862
 31
0
  0
LINE
  8
0
 62
4
 10
537.919
 20
67110.092
 30
0
 11
547.901
 21
67120.074
 31
0
  0
LINE
  8
0
 62
4
 10
537.919
 20
67120.074
 30
0
 11
547.901
 21
67110.092
 31
0
  0
LINE
  8
0
 62
4
 10
743.299
 20
67131.105
 30
0
 11
753.281
 21
67141.088
 31
0
  0
LINE
  8
0
 62
4
 10
743.299
 20
67141.088
 30
0
 11
753.281
 21
67131.105
 31
0
  0
LINE
  8
0
 62
4
 10
790.629
 20
67184.257
 30
0
 11
800.611
 21
67194.239
 31
0
  0
LINE
  8
0
 62
4
 10
790.629
 20
67194.239
 30
0
 11
800.611
 21
67184.257
 31
0
  0
LINE
  8
0
 62
4
 10
830.629
 20
67229.843
 30
0
 11
840.611
 21
67239.825
 31
0
  0
LINE
  8
0
 62
4
 10
830.629
 20
67239.825
 30
0
 11
840.611
 21
67229.843
 31
0
  0
LINE
  8
0
 62
4
 10
858.629
 20
67229.843
 30
0
 11
868.611
 21
67239.825
 31
0
  0
LINE
  8
0
 62
4
 10
858.629
 20
67239.825
 30
0
 11
868.611
 21
67229.843
 31
0
  0
LINE
  8
0
 62
4
 10
994.849
 20
67306.864
 30
0
 11
1004.831
 21
67316.847
 31
0
  0
LINE
  8
0
 62
4
 10
994.849
 20
67316.847
 30
0
 11
1004.831
 21
67306.864
 31
0
  0
LINE
  8
0
 62
4
 10
1241.589
 20
67405.997
 30
0
 11
1251.571
 21
67415.980
 31
0
  0
LINE
  8
0
 62
4
 10
1241.589
 20
67415.980
 30
0
 11
1251.571
 21
67405.997
 31
0
  0
LINE
  8
0
 62
4
 10
1257.639
 20
67414.135
 30
0
 11
1267.621
 21
67424.117
 31
0
  0
LINE
  8
0
 62
4
 10
1257.639
 20
67424.117
 30
0
 11
1267.621
 21
67414.135
 31
0
  0
LINE
  8
0
 62
4
 10
1433.679
 20
67536.024
 30
0
 11
1443.661
 21
67546.007
 31
0
  0
LINE
  8
0
 62
4
 10
1433.679
 20
67546.007
 30
0
 11
1443.661
 21
67536.024
 31
0
  0
LINE
  8
0
 62
4
 10
1571.369
 20
67640.101
 30
0
 11
1581.351
 21
67650.084
 31
0
  0
LINE
  8
0
 62
4
 10
1571.369
 20
67650.084
 30
0
 11
1581.351
 21
67640.101
 31
0
  0
LINE
  8
0
 62
4
 10
1648.179
 20
67673.654
 30
0
 11
1658.161
 21
67683.636
 31
0
  0
LINE
  8
0
 62
4
 10
1648.179
 20
67683.636
 30
0
 11
1658.161
 21
67673.654
 31
0
  0
LINE
  8
0
 62
4
 10
1766.849
 20
67740.209
 30
0
 11
1776.831
 21
67750.192
 31
0
  0
LINE
  8
0
 62
4
 10
1766.849
 20
67750.192
 30
0
 11
1776.831
 21
67740.209
 31
0
  0
LINE
  8
0
 62
4
 10
2060.189
 20
68082.557
 30
0
 11
2070.171
 21
68092.540
 31
0
  0
LINE
  8
0
 62
4
 10
2060.189
 20
68092.540
 30
0
 11
2070.171
 21
68082.557
 31
0
  0
LINE
  8
0
 62
4
 10
2113.059
 20
68127.074
 30
0
 11
2123.041
 21
68137.057
 31
0
  0
LINE
  8
0
 62
4
 10
2113.059
 20
68137.057
 30
0
 11
2123.041
 21
68127.074
 31
0
  0
LINE
  8
0
 62
4
 10
2216.029
 20
68142.382
 30
0
 11
2226.011
 21
68152.364
 31
0
  0
LINE
  8
0
 62
4
 10
2216.029
 20
68152.364
 30
0
 11
2226.011
 21
68142.382
 31
0
  0
LINE
  8
0
 62
4
 10
2395.719
 20
68231.005
 30
0
 11
2405.701
 21
68240.987
 31
0
  0
LINE
  8
0
 62
4
 10
2395.719
 20
68240.987
 30
0
 11
2405.701
 21
68231.005
 31
0
  0
LINE
  8
0
 62
4
 10
2473.749
 20
68395.888
 30
0
 11
2483.731
 21
68405.870
 31
0
  0
LINE
  8
0
 62
4
 10
2473.749
 20
68405.870
 30
0
 11
2483.731
 21
68395.888
 31
0
  0
LINE
  8
0
 62
4
 10
2489.349
 20
68515.778
 30
0
 11
2499.331
 21
68525.760
 31
0
  0
LINE
  8
0
 62
4
 10
2489.349
 20
68525.760
 30
0
 11
2499.331
 21
68515.778
 31
0
  0
LINE
  8
0
 62
4
 10
2633.349
 20
68534.191
 30
0
 11
2643.331
 21
68544.173
 31
0
  0
LINE
  8
0
 62
4
 10
2633.349
 20
68544.173
 30
0
 11
2643.331
 21
68534.191
 31
0
  0
LINE
  8
0
 62
4
 10
2636.349
 20
68534.191
 30
0
 11
2646.331
 21
68544.173
 31
0
  0
LINE
  8
0
 62
4
 10
2636.349
 20
68544.173
 30
0
 11
2646.331
 21
68534.191
 31
0
  0
LINE
  8
0
 62
4
 10
2726.389
 20
68568.204
 30
0
 11
2736.371
 21
68578.187
 31
0
  0
LINE
  8
0
 62
4
 10
2726.389
 20
68578.187
 30
0
 11
2736.371
 21
68568.204
 31
0
  0
LINE
  8
0
 62
4
 10
2815.509
 20
68605.507
 30
0
 11
2825.491
 21
68615.489
 31
0
  0
LINE
  8
0
 62
4
 10
2815.509
 20
68615.489
 30
0
 11
2825.491
 21
68605.507
 31
0
  0
LINE
  8
0
 62
4
 10
3011.319
 20
68787.667
 30
0
 11
3021.301
 21
68797.650
 31
0
  0
LINE
  8
0
 62
4
 10
3011.319
 20
68797.650
 30
0
 11
3021.301
 21
68787.667
 31
0
  0
LINE
  8
0
 62
4
 10
3294.269
 20
69121.483
 30
0
 11
3304.251
 21
69131.466
 31
0
  0
LINE
  8
0
 62
4
 10
3294.269
 20
69131.466
 30
0
 11
3304.251
 21
69121.483
 31
0
  0
ENDSEC
  0
EOF
