  0
SECTION
  2
HEADER
  9
$ACADVER
  1
AC1009
  9
$INSBASE
 10
0.0
 20
0.0
 30
0.0
  9
$EXTMIN
 10
1.000000E+20
 20
1.000000E+20
 30
1.000000E+20
  9
$EXTMAX
 10
-1.000000E+20
 20
-1.000000E+20
 30
-1.000000E+20
  9
$LIMMIN
 10
0.0
 20
0.0
  9
$LIMMAX
 10
12.0
 20
9.0
  9
$ORTHOMODE
 70
     1
  9
$REGENMODE
 70
     1
  9
$FILLMODE
 70
     1
  9
$QTEXTMODE
 70
     0
  9
$MIRRTEXT
 70
     1
  9
$DRAGMODE
 70
     2
  9
$LTSCALE
 40
100.0
  9
$OSMODE
 70
     0
  9
$ATTMODE
 70
     1
  9
$TEXTSIZE
 40
0.2
  9
$TRACEWID
 40
0.05
  9
$TEXTSTYLE
  7
STANDARD
  9
$CLAYER
  8
SYMBOL
  9
$CELTYPE
  6
BYLAYER
  9
$CECOLOR
 62
     2
  9
$DIMSCALE
 40
1.0
  9
$DIMASZ
 40
0.18
  9
$DIMEXO
 40
0.0625
  9
$DIMDLI
 40
0.38
  9
$DIMRND
 40
0.0
  9
$DIMDLE
 40
0.0
  9
$DIMEXE
 40
0.18
  9
$DIMTP
 40
0.0
  9
$DIMTM
 40
0.0
  9
$DIMTXT
 40
0.18
  9
$DIMCEN
 40
0.09
  9
$DIMTSZ
 40
0.0
  9
$DIMTOL
 70
     0
  9
$DIMLIM
 70
     0
  9
$DIMTIH
 70
     1
  9
$DIMTOH
 70
     1
  9
$DIMSE1
 70
     0
  9
$DIMSE2
 70
     0
  9
$DIMTAD
 70
     0
  9
$DIMZIN
 70
     0
  9
$DIMBLK
  1

  9
$DIMASO
 70
     1
  9
$DIMSHO
 70
     1
  9
$DIMPOST
  1

  9
$DIMAPOST
  1

  9
$DIMALT
 70
     0
  9
$DIMALTD
 70
     2
  9
$DIMALTF
 40
25.4
  9
$DIMLFAC
 40
1.0
  9
$DIMTOFL
 70
     0
  9
$DIMTVP
 40
0.0
  9
$DIMTIX
 70
     0
  9
$DIMSOXD
 70
     0
  9
$DIMSAH
 70
     0
  9
$DIMBLK1
  1

  9
$DIMBLK2
  1

  9
$DIMSTYLE
  2
STANDARD
  9
$DIMCLRD
 70
     0
  9
$DIMCLRE
 70
     0
  9
$DIMCLRT
 70
     0
  9
$DIMTFAC
 40
1.0
  9
$DIMGAP
 40
0.09
  9
$LUNITS
 70
     2
  9
$LUPREC
 70
     4
  9
$AXISMODE
 70
     0
  9
$AXISUNIT
 10
0.0
 20
0.0
  9
$SKETCHINC
 40
0.1
  9
$FILLETRAD
 40
0.0
  9
$AUNITS
 70
     0
  9
$AUPREC
 70
     0
  9
$MENU
  1
acad
  9
$ELEVATION
 40
500.0
  9
$PELEVATION
 40
0.0
  9
$THICKNESS
 40
0.0
  9
$LIMCHECK
 70
     0
  9
$BLIPMODE
 70
     1
  9
$CHAMFERA
 40
0.0
  9
$CHAMFERB
 40
0.0
  9
$SKPOLY
 70
     0
  9
$TDCREATE
 40
0.000000000
  9
$TDUPDATE
 40
0.000000000
  9
$TDINDWG
 40
0.0000000000
  9
$TDUSRTIMER
 40
0.0000000000
  9
$USRTIMER
 70
     1
  9
$ANGBASE
 50
0.0
  9
$ANGDIR
 70
     0
  9
$PDMODE
 70
     0
  9
$PDSIZE
 40
0.0
  9
$PLINEWID
 40
0.0
  9
$COORDS
 70
     0
  9
$SPLFRAME
 70
     0
  9
$SPLINETYPE
 70
     6
  9
$SPLINESEGS
 70
     8
  9
$ATTDIA
 70
     0
  9
$ATTREQ
 70
     1
  9
$HANDLING
 70
     1
  9
$HANDSEED
  5
6CF
  9
$SURFTAB1
 70
     6
  9
$SURFTAB2
 70
     6
  9
$SURFTYPE
 70
     6
  9
$SURFU
 70
     6
  9
$SURFV
 70
     6
  9
$UCSNAME
  2

  9
$UCSORG
 10
0.0
 20
0.0
 30
0.0
  9
$UCSXDIR
 10
1.0
 20
0.0
 30
0.0
  9
$UCSYDIR
 10
0.0
 20
1.0
 30
0.0
  9
$PUCSNAME
  2

  9
$PUCSORG
 10
0.0
 20
0.0
 30
0.0
  9
$PUCSXDIR
 10
1.0
 20
0.0
 30
0.0
  9
$PUCSYDIR
 10
0.0
 20
1.0
 30
0.0
  9
$USERI1
 70
     0
  9
$USERI2
 70
     0
  9
$USERI3
 70
     0
  9
$USERI4
 70
     0
  9
$USERI5
 70
     0
  9
$USERR1
 40
0.0
  9
$USERR2
 40
0.0
  9
$USERR3
 40
0.0
  9
$USERR4
 40
0.0
  9
$USERR5
 40
0.0
  9
$WORLDVIEW
 70
     1
  9
$SHADEDGE
 70
     3
  9
$SHADEDIF
 70
    70
  9
$TILEMODE
 70
     1
  9
$MAXACTVP
 70
    16
  9
$PINSBASE
 10
0.0
 20
0.0
 30
0.0
  9
$PLIMCHECK
 70
     0
  9
$PEXTMIN
 10
1.000000E+20
 20
1.000000E+20
 30
1.000000E+20
  9
$PEXTMAX
 10
-1.000000E+20
 20
-1.000000E+20
 30
-1.000000E+20
  9
$PLIMMIN
 10
0.0
 20
0.0
  9
$PLIMMAX
 10
12.0
 20
9.0
  9
$UNITMODE
 70
     0
  9
$VISRETAIN
 70
     0
  0
ENDSEC
  0
SECTION
  2
TABLES
  0
TABLE
  2
VPORT
 70
     1
  0
VPORT
  2
*ACTIVE
 70
     0
 10
0.0
 20
0.0
 11
1.0
 21
1.0
 12
6.591288
 22
4.579184
 13
0.0
 23
0.0
 14
1.0
 24
1.0
 15
0.0
 25
0.0
 16
0.0
 26
0.0
 36
1.0
 17
0.0
 27
0.0
 37
0.0
 40
9.158369
 41
0.688564
 42
50.0
 43
0.0
 44
0.0
 50
0.0
 51
0.0
 71
     0
 72
   100
 73
     1
 74
     1
 75
     0
 76
     0
 77
     0
 78
     0
  0
ENDTAB
  0
TABLE
  2
LTYPE
 70
    25
  0
LTYPE
  2
CONTINUOUS
 70
    64
  3
Solid line
 72
    65
 73
     0
 40
0.0
  0
LTYPE
  2
CENTER
 70
    64
  3
CENTER____ _ ____ _ ____ _ ____ _ ____ _ ____
 72
    65
 73
     4
 40
2.0
 49
1.25
 49
-0.25
 49
0.25
 49
-0.25
  0
LTYPE
  2
DASHDOT
 70
    64
  3
DASHDOT__ . __ . __ . __ . __ . __ . __ . __
 72
    65
 73
     4
 40
1.0
 49
0.5
 49
-0.25
 49
0.0
 49
-0.25
  0
LTYPE
  2
DASHED
 70
    64
  3
DASHED__ __ __ __ __ __ __ __ __ __ __ __ __ _
 72
    65
 73
     4
 40
0.75
 49
0.5
 49
-0.25
 49
0.0
 49
0.0
  0
LTYPE
  2
HIDDEN
 70
    64
  3
HIDDEN__ __ __ __ __ __ __ __ __ __ __ __ __ __
 72
    65
 73
     4
 40
0.375
 49
0.25
 49
-0.125
 49
0.0
 49
0.0
  0
LTYPE
  2
HIDDEN2
 70
    64
  3
HIDDEN2_ _ _ _ _ _ _ _ _ _ _ _ _ _ _ _ _ 
 72
    65
 73
     4
 40
0.1875
 49
0.125
 49
-0.0625
 49
0.0
 49
0.0
  0
LTYPE
  2
BORDER
 70
    64
  3
BORDER __ __ . __ __ . __ __ . __ __ . __ __ .
 72
    65
 73
     5
 40
1.75
 49
0.5
 49
-0.25
 49
0.5
 49
-0.25
 49
0.0
  0
LTYPE
  2
BORDER2
 70
    64
  3
BORDER2  __.__.__.__.__.__.__.__.__.__.__.
 72
    65
 73
     6
 40
0.875
 49
0.25
 49
-0.125
 49
0.25
 49
-0.125
 49
0.0
 49
-0.125
  0
LTYPE
  2
BORDERX2
 70
    64
  3
BORDERX2 ____  ____  .  ____  ____  .  ___
 72
    65
 73
     6
 40
3.5
 49
1.0
 49
-0.5
 49
1.0
 49
-0.5
 49
0.0
 49
-0.5
  0
LTYPE
  2
CENTER2
 70
    64
  3
CENTER2 ___ _ ___ _ ___ _ ___ _ ___ _ ___
 72
    65
 73
     4
 40
1.125
 49
0.75
 49
-0.125
 49
0.125
 49
-0.125
  0
LTYPE
  2
CENTERX2
 70
    64
  3
CENTERX2 ________  __  ________  __  _____
 72
    65
 73
     4
 40
4.0
 49
2.5
 49
-0.5
 49
0.5
 49
-0.5
  0
LTYPE
  2
DASHDOT2
 70
    64
  3
DASHDOT2  _._._._._._._._._._._._._._._.
 72
    65
 73
     4
 40
4.0
 49
0.25
 49
-0.125
 49
0.0
 49
-0.125
  0
LTYPE
  2
DASHDOTX2
 70
    64
  3
DASHDOTX2 ____  .  ____  .  ____  .  ___
 72
    65
 73
     3
 40
2.0
 49
1.0
 49
-0.5
 49
0.0
  0
LTYPE
  2
DASHED2
 70
    64
  3
DASHED2 _ _ _ _ _ _ _ _ _ _ _ _ _ _ _ _ _ 
 72
    65
 73
     2
 40
0.15
 49
0.25
 49
-0.125
  0
LTYPE
  2
DASHEDX2
 70
    64
  3
DASHEDX2 ____  ____  ____  ____  ____  ___
 72
    65
 73
     2
 40
1.5
 49
1.0
 49
-0.5
  0
LTYPE
  2
DIVIDE
 70
    64
  3
DIVIDE  ____ . . ____ . . ____ . . ____ . . ____
 72
    65
 73
     6
 40
1.25
 49
0.5
 49
-0.25
 49
0.0
 49
-0.25
 49
0.0
 49
-0.25
  0
LTYPE
  2
DIVIDE2
 70
    64
  3
DIVIDE2  __..__..__..__..__..__..__..__.._
 72
    65
 73
     6
 40
0.625
 49
0.25
 49
-0.125
 49
0.0
 49
-0.125
 49
0.0
 49
-0.125
  0
LTYPE
  2
DIVIDEX2
 70
    64
  3
DIVIDEX2  ________  .  .  ________  .  .  _
 72
    65
 73
     6
 40
2.5
 49
1.0
 49
-0.5
 49
0.0
 49
-0.5
 49
0.0
 49
-0.5
  0
LTYPE
  2
DOT
 70
    64
  3
DOT . . . . . . . . . . . . . . . . . . . . . . . .
 72
    65
 73
     2
 40
0.25
 49
0.0
 49
-0.25
  0
LTYPE
  2
DOT2
 70
    64
  3
DOT2  ........................................
 72
    65
 73
     2
 40
0.125
 49
0.0
 49
-0.125
  0
LTYPE
  2
DOTX2
 70
    64
  3
DOTX2 .  .  .  .  .  .  .  .  .  .  .  .  .  .
 72
    65
 73
     2
 40
0.5
 49
0.0
 49
-0.5
  0
LTYPE
  2
HIDDENX2
 70
    64
  3
HIDDENX2  ____ ____ ____ ____ ____ ____ ____ 
 72
    65
 73
     2
 40
0.75
 49
0.5
 49
-0.25
  0
LTYPE
  2
PHANTOM
 70
    64
  3
PHANTOM  ______  __  __  ______  __  __  ______ 
 72
    65
 73
     6
 40
2.5
 49
1.25
 49
-0.25
 49
0.25
 49
-0.25
 49
0.25
 49
-0.25
  0
LTYPE
  2
PHANTOM2
 70
    64
  3
PHANTOM2  ___ _ _ ___ _ _ ___ _ _ ___ _ _
 72
    65
 73
     6
 40
1.25
 49
0.625
 49
-0.125
 49
0.125
 49
-0.125
 49
0.125
 49
-0.125
  0
LTYPE
  2
PHANTOMX2
 70
    64
  3
PHANTOMX2 ____________    ____    ____   _
 72
    65
 73
     6
 40
5.0
 49
2.5
 49
-0.5
 49
0.5
 49
-0.5
 49
0.5
 49
-0.5
  0
ENDTAB
  0
TABLE
  2
LAYER
 70
    26
  0
LAYER
  2
0
 70
     0
 62
     7
  6
CONTINUOUS
  0
LAYER
  2
SYMBOL
 70
     0
 62
     3
  6
CONTINUOUS
  0
LAYER
  2
WS10
 70
     0
 62
     4
  6
HIDDEN
  0
LAYER
  2
STREAM
 70
     0
 62
     5
  6
CONTINUOUS
  0
LAYER
  2
WS100
 70
     0
 62
     5
  6
PHANTOM
  0
LAYER
  2
WS500
 70
     0
 62
     1
  6
CONTINUOUS
  0
LAYER
  2
STRUCTURE
 70
     0
 62
     3
  6
CONTINUOUS
  0
LAYER
  2
WS50
 70
     0
 62
     1
  6
CENTER
  0
LAYER
  2
GRIDS
 70
     0
 62
     7
  6
CONTINUOUS
  0
LAYER
  2
TEXT
 70
     0
 62
     7
  6
CONTINUOUS
  0
LAYER
  2
ROCK
 70
     0
 62
     7
  6
CONTINUOUS
  0
LAYER
  2
XSEC
 70
     0
 62
     7
  6
CONTINUOUS
  0
LAYER
  2
BRIDGE
 70
     0
 62
     7
  6
CONTINUOUS
  0
LAYER
  2
CULVERT
 70
     0
 62
     7
  6
CONTINUOUS
  0
LAYER
  2
HATCH
 70
     0
 62
     7
  6
CONTINUOUS
  0
LAYER
  2
XSECTEXTLINE
 70
     0
 62
     7
  6
CONTINUOUS
  0
LAYER
  2
LANDMARKLINE
 70
     0
 62
     7
  6
CONTINUOUS
  0
LAYER
  2
LEGEND_BOX
 70
     0
 62
     7
  6
CONTINUOUS
  0
LAYER
  2
LEGEND_XSEC
 70
     0
 62
     7
  6
CONTINUOUS
  0
LAYER
  2
BORDERLINE
 70
     0
 62
     7
  6
CONTINUOUS
  0
LAYER
  2
GRID_MAJOR
 70
     0
 62
     7
  6
CONTINUOUS
  0
LAYER
  2
GRID_MINOR
 70
     0
 62
     7
  6
CONTINUOUS
  0
LAYER
  2
BACKWATER
 70
     0
 62
     7
  6
CONTINUOUS
  0
LAYER
  2
LEADER
 70
     0
 62
     7
  6
CONTINUOUS
  0
LAYER
  2
DAM
 70
     0
 62
     7
  6
CONTINUOUS
  0
LAYER
  2
XSEC_LINE
 70
     0
 62
     7
  6
CONTINUOUS
  0
ENDTAB
  0
TABLE
  2
STYLE
 70
     2
  0
STYLE
  2
STANDARD
 70
     0
 40
0.0
 41
1.0
 50
0.0
 71
     0
 42
0.2
  3
txt
  4

  0
STYLE
  2
ROMANT
 70
     0
 40
0.0
 41
1.0
 50
0.0
 71
     0
 42
0.2
  3

  4

  0
ENDTAB
  0
TABLE
  2
VIEW
 70
     0
  0
ENDTAB
  0
TABLE
  2
UCS
 70
     0
  0
ENDTAB
  0
TABLE
  2
APPID
 70
     4
  0
APPID
  2
ACAD
 70
     0
  0
APPID
  2
VDEXTRAPARAM
 70
     0
  0
APPID
  2
VD_XPROPERTIES
 70
     0
  0
APPID
  2
VD_TEMPHATCH
 70
     0
  0
ENDTAB
  0
TABLE
  2
DIMSTYLE
 70
     1
  0
DIMSTYLE
  2
STANDARD
 70
     0
  3

  4

  5

  6

  7

 40
1.0
 41
100.0
 42
0.0625
 43
0.38
 44
0.18
 45
0.0
 46
0.0
 47
0.0
 48
0.0
 71
     0
 72
     0
 73
     1
 74
     1
 75
     0
 76
     0
 77
     0
 78
     0
140
50.0
141
0.09
142
0.0
143
25.4
144
1.0
145
0.0
146
1.0
147
0.09
170
     0
171
     2
172
     0
173
     0
174
     0
175
     0
176
     0
177
     0
178
     0
  0
ENDTAB
  0
ENDSEC
  0
SECTION
  2
BLOCKS
  0
BLOCK
  8
0
  5
5C
  2
BAR
 70
     0
 10
0.0
 20
0.0
 30
0.0
  3
BAR
1001
VD_XPROPERTIES
  0
LINE
  8
BRIDGE
 62
     1
  5
5D
 10
-0.05
 20
0.0
 30
0.0
 11
0.05
 21
0.0
 31
0.0
1001
VD_XPROPERTIES
  0
ENDBLK
  8
0
  5
5E
  0
BLOCK
  8
0
  5
5F
  2
BORDER
 70
     0
 10
0.0
 20
0.0
 30
0.0
  3
BORDER
1001
VD_XPROPERTIES
  0
POLYLINE
  8
BORDERLINE
  5
60
 66
     1
 10
0.0
 20
0.0
 30
0.0
1001
VDEXTRAPARAM
1071
        0
1071
        0
1071
        0
1040
1.0
1000

1000

1001
VD_XPROPERTIES
  0
VERTEX
  8
BORDERLINE
  5
61
 10
-0.999833
 20
-0.75
 30
0.0
  0
VERTEX
  8
BORDERLINE
  5
62
 10
14.500167
 20
-0.75
 30
0.0
  0
VERTEX
  8
BORDERLINE
  5
63
 10
14.500167
 20
9.25
 30
0.0
  0
VERTEX
  8
BORDERLINE
  5
64
 10
-0.999833
 20
9.25
 30
0.0
  0
VERTEX
  8
BORDERLINE
  5
65
 10
-0.999833
 20
-0.75
 30
0.0
  0
VERTEX
  8
BORDERLINE
  5
66
 10
-0.999833
 20
-0.75
 30
0.0
  0
SEQEND
  8
0
  5
67
  0
POLYLINE
  8
GRID_MAJOR
  5
68
 66
     1
 10
0.0
 20
0.0
 30
0.0
1001
VDEXTRAPARAM
1071
        0
1071
        0
1071
        0
1040
1.0
1000

1000

1001
VD_XPROPERTIES
  0
VERTEX
  8
GRID_MAJOR
  5
69
 10
2.0
 20
0.0
 30
0.0
  0
VERTEX
  8
GRID_MAJOR
  5
6A
 10
2.0
 20
9.0
 30
0.0
  0
SEQEND
  8
0
  5
6B
  0
POLYLINE
  8
GRID_MAJOR
  5
6C
 66
     1
 10
0.0
 20
0.0
 30
0.0
1001
VDEXTRAPARAM
1071
        0
1071
        0
1071
        0
1040
1.0
1000

1000

1001
VD_XPROPERTIES
  0
VERTEX
  8
GRID_MAJOR
  5
6D
 10
1.0
 20
0.0
 30
0.0
  0
VERTEX
  8
GRID_MAJOR
  5
6E
 10
1.0
 20
9.0
 30
0.0
  0
SEQEND
  8
0
  5
6F
  0
POLYLINE
  8
GRID_MAJOR
  5
70
 66
     1
 10
0.0
 20
0.0
 30
0.0
1001
VDEXTRAPARAM
1071
        0
1071
        0
1071
        0
1040
1.0
1000

1000

1001
VD_XPROPERTIES
  0
VERTEX
  8
GRID_MAJOR
  5
71
 10
0.0
 20
0.0
 30
0.0
  0
VERTEX
  8
GRID_MAJOR
  5
72
 10
0.0
 20
9.0
 30
0.0
  0
SEQEND
  8
0
  5
73
  0
POLYLINE
  8
GRID_MINOR
  6
CONTINUOUS
 62
     8
  5
74
 66
     1
 10
0.0
 20
0.0
 30
0.0
1001
VDEXTRAPARAM
1071
        0
1071
        0
1071
        0
1040
1.0
1000

1000

1001
VD_XPROPERTIES
  0
VERTEX
  8
GRID_MINOR
  6
CONTINUOUS
 62
     8
  5
75
 10
0.1
 20
0.0
 30
0.0
  0
VERTEX
  8
GRID_MINOR
  6
CONTINUOUS
 62
     8
  5
76
 10
0.1
 20
9.0
 30
0.0
  0
SEQEND
  8
0
  5
77
  0
POLYLINE
  8
GRID_MINOR
  6
CONTINUOUS
 62
     8
  5
78
 66
     1
 10
0.0
 20
0.0
 30
0.0
1001
VDEXTRAPARAM
1071
        0
1071
        0
1071
        0
1040
1.0
1000

1000

1001
VD_XPROPERTIES
  0
VERTEX
  8
GRID_MINOR
  6
CONTINUOUS
 62
     8
  5
79
 10
0.2
 20
0.0
 30
0.0
  0
VERTEX
  8
GRID_MINOR
  6
CONTINUOUS
 62
     8
  5
7A
 10
0.2
 20
9.0
 30
0.0
  0
SEQEND
  8
0
  5
7B
  0
POLYLINE
  8
GRID_MINOR
  6
CONTINUOUS
 62
     8
  5
7C
 66
     1
 10
0.0
 20
0.0
 30
0.0
1001
VDEXTRAPARAM
1071
        0
1071
        0
1071
        0
1040
1.0
1000

1000

1001
VD_XPROPERTIES
  0
VERTEX
  8
GRID_MINOR
  6
CONTINUOUS
 62
     8
  5
7D
 10
0.3
 20
0.0
 30
0.0
  0
VERTEX
  8
GRID_MINOR
  6
CONTINUOUS
 62
     8
  5
7E
 10
0.3
 20
9.0
 30
0.0
  0
SEQEND
  8
0
  5
7F
  0
POLYLINE
  8
GRID_MINOR
  6
CONTINUOUS
 62
     8
  5
80
 66
     1
 10
0.0
 20
0.0
 30
0.0
1001
VDEXTRAPARAM
1071
        0
1071
        0
1071
        0
1040
1.0
1000

1000

1001
VD_XPROPERTIES
  0
VERTEX
  8
GRID_MINOR
  6
CONTINUOUS
 62
     8
  5
81
 10
0.4
 20
0.0
 30
0.0
  0
VERTEX
  8
GRID_MINOR
  6
CONTINUOUS
 62
     8
  5
82
 10
0.4
 20
9.0
 30
0.0
  0
SEQEND
  8
0
  5
83
  0
POLYLINE
  8
GRID_MINOR
  6
CONTINUOUS
 62
     8
  5
84
 66
     1
 10
0.0
 20
0.0
 30
0.0
1001
VDEXTRAPARAM
1071
        0
1071
        0
1071
        0
1040
1.0
1000

1000

1001
VD_XPROPERTIES
  0
VERTEX
  8
GRID_MINOR
  6
CONTINUOUS
 62
     8
  5
85
 10
0.5
 20
0.0
 30
0.0
  0
VERTEX
  8
GRID_MINOR
  6
CONTINUOUS
 62
     8
  5
86
 10
0.5
 20
9.0
 30
0.0
  0
SEQEND
  8
0
  5
87
  0
POLYLINE
  8
GRID_MINOR
  6
CONTINUOUS
 62
     8
  5
88
 66
     1
 10
0.0
 20
0.0
 30
0.0
1001
VDEXTRAPARAM
1071
        0
1071
        0
1071
        0
1040
1.0
1000

1000

1001
VD_XPROPERTIES
  0
VERTEX
  8
GRID_MINOR
  6
CONTINUOUS
 62
     8
  5
89
 10
0.6
 20
0.0
 30
0.0
  0
VERTEX
  8
GRID_MINOR
  6
CONTINUOUS
 62
     8
  5
8A
 10
0.6
 20
9.0
 30
0.0
  0
SEQEND
  8
0
  5
8B
  0
POLYLINE
  8
GRID_MINOR
  6
CONTINUOUS
 62
     8
  5
8C
 66
     1
 10
0.0
 20
0.0
 30
0.0
1001
VDEXTRAPARAM
1071
        0
1071
        0
1071
        0
1040
1.0
1000

1000

1001
VD_XPROPERTIES
  0
VERTEX
  8
GRID_MINOR
  6
CONTINUOUS
 62
     8
  5
8D
 10
0.7
 20
0.0
 30
0.0
  0
VERTEX
  8
GRID_MINOR
  6
CONTINUOUS
 62
     8
  5
8E
 10
0.7
 20
9.0
 30
0.0
  0
SEQEND
  8
0
  5
8F
  0
POLYLINE
  8
GRID_MINOR
  6
CONTINUOUS
 62
     8
  5
90
 66
     1
 10
0.0
 20
0.0
 30
0.0
1001
VDEXTRAPARAM
1071
        0
1071
        0
1071
        0
1040
1.0
1000

1000

1001
VD_XPROPERTIES
  0
VERTEX
  8
GRID_MINOR
  6
CONTINUOUS
 62
     8
  5
91
 10
0.8
 20
0.0
 30
0.0
  0
VERTEX
  8
GRID_MINOR
  6
CONTINUOUS
 62
     8
  5
92
 10
0.8
 20
9.0
 30
0.0
  0
SEQEND
  8
0
  5
93
  0
POLYLINE
  8
GRID_MINOR
  6
CONTINUOUS
 62
     8
  5
94
 66
     1
 10
0.0
 20
0.0
 30
0.0
1001
VDEXTRAPARAM
1071
        0
1071
        0
1071
        0
1040
1.0
1000

1000

1001
VD_XPROPERTIES
  0
VERTEX
  8
GRID_MINOR
  6
CONTINUOUS
 62
     8
  5
95
 10
0.9
 20
0.0
 30
0.0
  0
VERTEX
  8
GRID_MINOR
  6
CONTINUOUS
 62
     8
  5
96
 10
0.9
 20
9.0
 30
0.0
  0
SEQEND
  8
0
  5
97
  0
POLYLINE
  8
GRID_MINOR
  6
CONTINUOUS
 62
     8
  5
98
 66
     1
 10
0.0
 20
0.0
 30
0.0
1001
VDEXTRAPARAM
1071
        0
1071
        0
1071
        0
1040
1.0
1000

1000

1001
VD_XPROPERTIES
  0
VERTEX
  8
GRID_MINOR
  6
CONTINUOUS
 62
     8
  5
99
 10
1.1
 20
0.0
 30
0.0
  0
VERTEX
  8
GRID_MINOR
  6
CONTINUOUS
 62
     8
  5
9A
 10
1.1
 20
9.0
 30
0.0
  0
SEQEND
  8
0
  5
9B
  0
POLYLINE
  8
GRID_MINOR
  6
CONTINUOUS
 62
     8
  5
9C
 66
     1
 10
0.0
 20
0.0
 30
0.0
1001
VDEXTRAPARAM
1071
        0
1071
        0
1071
        0
1040
1.0
1000

1000

1001
VD_XPROPERTIES
  0
VERTEX
  8
GRID_MINOR
  6
CONTINUOUS
 62
     8
  5
9D
 10
1.2
 20
0.0
 30
0.0
  0
VERTEX
  8
GRID_MINOR
  6
CONTINUOUS
 62
     8
  5
9E
 10
1.2
 20
9.0
 30
0.0
  0
SEQEND
  8
0
  5
9F
  0
POLYLINE
  8
GRID_MINOR
  6
CONTINUOUS
 62
     8
  5
A0
 66
     1
 10
0.0
 20
0.0
 30
0.0
1001
VDEXTRAPARAM
1071
        0
1071
        0
1071
        0
1040
1.0
1000

1000

1001
VD_XPROPERTIES
  0
VERTEX
  8
GRID_MINOR
  6
CONTINUOUS
 62
     8
  5
A1
 10
1.3
 20
0.0
 30
0.0
  0
VERTEX
  8
GRID_MINOR
  6
CONTINUOUS
 62
     8
  5
A2
 10
1.3
 20
9.0
 30
0.0
  0
SEQEND
  8
0
  5
A3
  0
POLYLINE
  8
GRID_MINOR
  6
CONTINUOUS
 62
     8
  5
A4
 66
     1
 10
0.0
 20
0.0
 30
0.0
1001
VDEXTRAPARAM
1071
        0
1071
        0
1071
        0
1040
1.0
1000

1000

1001
VD_XPROPERTIES
  0
VERTEX
  8
GRID_MINOR
  6
CONTINUOUS
 62
     8
  5
A5
 10
1.4
 20
0.0
 30
0.0
  0
VERTEX
  8
GRID_MINOR
  6
CONTINUOUS
 62
     8
  5
A6
 10
1.4
 20
9.0
 30
0.0
  0
SEQEND
  8
0
  5
A7
  0
POLYLINE
  8
GRID_MINOR
  6
CONTINUOUS
 62
     8
  5
A8
 66
     1
 10
0.0
 20
0.0
 30
0.0
1001
VDEXTRAPARAM
1071
        0
1071
        0
1071
        0
1040
1.0
1000

1000

1001
VD_XPROPERTIES
  0
VERTEX
  8
GRID_MINOR
  6
CONTINUOUS
 62
     8
  5
A9
 10
1.5
 20
0.0
 30
0.0
  0
VERTEX
  8
GRID_MINOR
  6
CONTINUOUS
 62
     8
  5
AA
 10
1.5
 20
9.0
 30
0.0
  0
SEQEND
  8
0
  5
AB
  0
POLYLINE
  8
GRID_MINOR
  6
CONTINUOUS
 62
     8
  5
AC
 66
     1
 10
0.0
 20
0.0
 30
0.0
1001
VDEXTRAPARAM
1071
        0
1071
        0
1071
        0
1040
1.0
1000

1000

1001
VD_XPROPERTIES
  0
VERTEX
  8
GRID_MINOR
  6
CONTINUOUS
 62
     8
  5
AD
 10
1.6
 20
0.0
 30
0.0
  0
VERTEX
  8
GRID_MINOR
  6
CONTINUOUS
 62
     8
  5
AE
 10
1.6
 20
9.0
 30
0.0
  0
SEQEND
  8
0
  5
AF
  0
POLYLINE
  8
GRID_MINOR
  6
CONTINUOUS
 62
     8
  5
B0
 66
     1
 10
0.0
 20
0.0
 30
0.0
1001
VDEXTRAPARAM
1071
        0
1071
        0
1071
        0
1040
1.0
1000

1000

1001
VD_XPROPERTIES
  0
VERTEX
  8
GRID_MINOR
  6
CONTINUOUS
 62
     8
  5
B1
 10
1.7
 20
0.0
 30
0.0
  0
VERTEX
  8
GRID_MINOR
  6
CONTINUOUS
 62
     8
  5
B2
 10
1.7
 20
9.0
 30
0.0
  0
SEQEND
  8
0
  5
B3
  0
POLYLINE
  8
GRID_MINOR
  6
CONTINUOUS
 62
     8
  5
B4
 66
     1
 10
0.0
 20
0.0
 30
0.0
1001
VDEXTRAPARAM
1071
        0
1071
        0
1071
        0
1040
1.0
1000

1000

1001
VD_XPROPERTIES
  0
VERTEX
  8
GRID_MINOR
  6
CONTINUOUS
 62
     8
  5
B5
 10
1.8
 20
0.0
 30
0.0
  0
VERTEX
  8
GRID_MINOR
  6
CONTINUOUS
 62
     8
  5
B6
 10
1.8
 20
9.0
 30
0.0
  0
SEQEND
  8
0
  5
B7
  0
POLYLINE
  8
GRID_MINOR
  6
CONTINUOUS
 62
     8
  5
B8
 66
     1
 10
0.0
 20
0.0
 30
0.0
1001
VDEXTRAPARAM
1071
        0
1071
        0
1071
        0
1040
1.0
1000

1000

1001
VD_XPROPERTIES
  0
VERTEX
  8
GRID_MINOR
  6
CONTINUOUS
 62
     8
  5
B9
 10
1.9
 20
0.0
 30
0.0
  0
VERTEX
  8
GRID_MINOR
  6
CONTINUOUS
 62
     8
  5
BA
 10
1.9
 20
9.0
 30
0.0
  0
SEQEND
  8
0
  5
BB
  0
POLYLINE
  8
GRID_MINOR
  6
CONTINUOUS
 62
     8
  5
BC
 66
     1
 10
0.0
 20
0.0
 30
0.0
1001
VDEXTRAPARAM
1071
        0
1071
        0
1071
        0
1040
1.0
1000

1000

1001
VD_XPROPERTIES
  0
VERTEX
  8
GRID_MINOR
  6
CONTINUOUS
 62
     8
  5
BD
 10
2.1
 20
0.0
 30
0.0
  0
VERTEX
  8
GRID_MINOR
  6
CONTINUOUS
 62
     8
  5
BE
 10
2.1
 20
9.0
 30
0.0
  0
SEQEND
  8
0
  5
BF
  0
POLYLINE
  8
GRID_MINOR
  6
CONTINUOUS
 62
     8
  5
C0
 66
     1
 10
0.0
 20
0.0
 30
0.0
1001
VDEXTRAPARAM
1071
        0
1071
        0
1071
        0
1040
1.0
1000

1000

1001
VD_XPROPERTIES
  0
VERTEX
  8
GRID_MINOR
  6
CONTINUOUS
 62
     8
  5
C1
 10
2.2
 20
0.0
 30
0.0
  0
VERTEX
  8
GRID_MINOR
  6
CONTINUOUS
 62
     8
  5
C2
 10
2.2
 20
9.0
 30
0.0
  0
SEQEND
  8
0
  5
C3
  0
POLYLINE
  8
GRID_MAJOR
  5
C4
 66
     1
 10
0.0
 20
0.0
 30
0.0
1001
VDEXTRAPARAM
1071
        0
1071
        0
1071
        0
1040
1.0
1000

1000

1001
VD_XPROPERTIES
  0
VERTEX
  8
GRID_MAJOR
  5
C5
 10
6.0
 20
0.0
 30
0.0
  0
VERTEX
  8
GRID_MAJOR
  5
C6
 10
6.0
 20
9.0
 30
0.0
  0
SEQEND
  8
0
  5
C7
  0
POLYLINE
  8
GRID_MAJOR
  5
C8
 66
     1
 10
0.0
 20
0.0
 30
0.0
1001
VDEXTRAPARAM
1071
        0
1071
        0
1071
        0
1040
1.0
1000

1000

1001
VD_XPROPERTIES
  0
VERTEX
  8
GRID_MAJOR
  5
C9
 10
5.0
 20
0.0
 30
0.0
  0
VERTEX
  8
GRID_MAJOR
  5
CA
 10
5.0
 20
9.0
 30
0.0
  0
SEQEND
  8
0
  5
CB
  0
POLYLINE
  8
GRID_MAJOR
  5
CC
 66
     1
 10
0.0
 20
0.0
 30
0.0
1001
VDEXTRAPARAM
1071
        0
1071
        0
1071
        0
1040
1.0
1000

1000

1001
VD_XPROPERTIES
  0
VERTEX
  8
GRID_MAJOR
  5
CD
 10
4.0
 20
0.0
 30
0.0
  0
VERTEX
  8
GRID_MAJOR
  5
CE
 10
4.0
 20
9.0
 30
0.0
  0
SEQEND
  8
0
  5
CF
  0
POLYLINE
  8
GRID_MAJOR
  5
D0
 66
     1
 10
0.0
 20
0.0
 30
0.0
1001
VDEXTRAPARAM
1071
        0
1071
        0
1071
        0
1040
1.0
1000

1000

1001
VD_XPROPERTIES
  0
VERTEX
  8
GRID_MAJOR
  5
D1
 10
3.0
 20
0.0
 30
0.0
  0
VERTEX
  8
GRID_MAJOR
  5
D2
 10
3.0
 20
9.0
 30
0.0
  0
SEQEND
  8
0
  5
D3
  0
POLYLINE
  8
GRID_MINOR
  6
CONTINUOUS
 62
     8
  5
D4
 66
     1
 10
0.0
 20
0.0
 30
0.0
1001
VDEXTRAPARAM
1071
        0
1071
        0
1071
        0
1040
1.0
1000

1000

1001
VD_XPROPERTIES
  0
VERTEX
  8
GRID_MINOR
  6
CONTINUOUS
 62
     8
  5
D5
 10
2.3
 20
0.0
 30
0.0
  0
VERTEX
  8
GRID_MINOR
  6
CONTINUOUS
 62
     8
  5
D6
 10
2.3
 20
9.0
 30
0.0
  0
SEQEND
  8
0
  5
D7
  0
POLYLINE
  8
GRID_MINOR
  6
CONTINUOUS
 62
     8
  5
D8
 66
     1
 10
0.0
 20
0.0
 30
0.0
1001
VDEXTRAPARAM
1071
        0
1071
        0
1071
        0
1040
1.0
1000

1000

1001
VD_XPROPERTIES
  0
VERTEX
  8
GRID_MINOR
  6
CONTINUOUS
 62
     8
  5
D9
 10
2.4
 20
0.0
 30
0.0
  0
VERTEX
  8
GRID_MINOR
  6
CONTINUOUS
 62
     8
  5
DA
 10
2.4
 20
9.0
 30
0.0
  0
SEQEND
  8
0
  5
DB
  0
POLYLINE
  8
GRID_MINOR
  6
CONTINUOUS
 62
     8
  5
DC
 66
     1
 10
0.0
 20
0.0
 30
0.0
1001
VDEXTRAPARAM
1071
        0
1071
        0
1071
        0
1040
1.0
1000

1000

1001
VD_XPROPERTIES
  0
VERTEX
  8
GRID_MINOR
  6
CONTINUOUS
 62
     8
  5
DD
 10
2.5
 20
0.0
 30
0.0
  0
VERTEX
  8
GRID_MINOR
  6
CONTINUOUS
 62
     8
  5
DE
 10
2.5
 20
9.0
 30
0.0
  0
SEQEND
  8
0
  5
DF
  0
POLYLINE
  8
GRID_MINOR
  6
CONTINUOUS
 62
     8
  5
E0
 66
     1
 10
0.0
 20
0.0
 30
0.0
1001
VDEXTRAPARAM
1071
        0
1071
        0
1071
        0
1040
1.0
1000

1000

1001
VD_XPROPERTIES
  0
VERTEX
  8
GRID_MINOR
  6
CONTINUOUS
 62
     8
  5
E1
 10
2.6
 20
0.0
 30
0.0
  0
VERTEX
  8
GRID_MINOR
  6
CONTINUOUS
 62
     8
  5
E2
 10
2.6
 20
9.0
 30
0.0
  0
SEQEND
  8
0
  5
E3
  0
POLYLINE
  8
GRID_MINOR
  6
CONTINUOUS
 62
     8
  5
E4
 66
     1
 10
0.0
 20
0.0
 30
0.0
1001
VDEXTRAPARAM
1071
        0
1071
        0
1071
        0
1040
1.0
1000

1000

1001
VD_XPROPERTIES
  0
VERTEX
  8
GRID_MINOR
  6
CONTINUOUS
 62
     8
  5
E5
 10
2.7
 20
0.0
 30
0.0
  0
VERTEX
  8
GRID_MINOR
  6
CONTINUOUS
 62
     8
  5
E6
 10
2.7
 20
9.0
 30
0.0
  0
SEQEND
  8
0
  5
E7
  0
POLYLINE
  8
GRID_MINOR
  6
CONTINUOUS
 62
     8
  5
E8
 66
     1
 10
0.0
 20
0.0
 30
0.0
1001
VDEXTRAPARAM
1071
        0
1071
        0
1071
        0
1040
1.0
1000

1000

1001
VD_XPROPERTIES
  0
VERTEX
  8
GRID_MINOR
  6
CONTINUOUS
 62
     8
  5
E9
 10
2.8
 20
0.0
 30
0.0
  0
VERTEX
  8
GRID_MINOR
  6
CONTINUOUS
 62
     8
  5
EA
 10
2.8
 20
9.0
 30
0.0
  0
SEQEND
  8
0
  5
EB
  0
POLYLINE
  8
GRID_MINOR
  6
CONTINUOUS
 62
     8
  5
EC
 66
     1
 10
0.0
 20
0.0
 30
0.0
1001
VDEXTRAPARAM
1071
        0
1071
        0
1071
        0
1040
1.0
1000

1000

1001
VD_XPROPERTIES
  0
VERTEX
  8
GRID_MINOR
  6
CONTINUOUS
 62
     8
  5
ED
 10
2.9
 20
0.0
 30
0.0
  0
VERTEX
  8
GRID_MINOR
  6
CONTINUOUS
 62
     8
  5
EE
 10
2.9
 20
9.0
 30
0.0
  0
SEQEND
  8
0
  5
EF
  0
POLYLINE
  8
GRID_MINOR
  6
CONTINUOUS
 62
     8
  5
F0
 66
     1
 10
0.0
 20
0.0
 30
0.0
1001
VDEXTRAPARAM
1071
        0
1071
        0
1071
        0
1040
1.0
1000

1000

1001
VD_XPROPERTIES
  0
VERTEX
  8
GRID_MINOR
  6
CONTINUOUS
 62
     8
  5
F1
 10
3.1
 20
0.0
 30
0.0
  0
VERTEX
  8
GRID_MINOR
  6
CONTINUOUS
 62
     8
  5
F2
 10
3.1
 20
9.0
 30
0.0
  0
SEQEND
  8
0
  5
F3
  0
POLYLINE
  8
GRID_MINOR
  6
CONTINUOUS
 62
     8
  5
F4
 66
     1
 10
0.0
 20
0.0
 30
0.0
1001
VDEXTRAPARAM
1071
        0
1071
        0
1071
        0
1040
1.0
1000

1000

1001
VD_XPROPERTIES
  0
VERTEX
  8
GRID_MINOR
  6
CONTINUOUS
 62
     8
  5
F5
 10
3.2
 20
0.0
 30
0.0
  0
VERTEX
  8
GRID_MINOR
  6
CONTINUOUS
 62
     8
  5
F6
 10
3.2
 20
9.0
 30
0.0
  0
SEQEND
  8
0
  5
F7
  0
POLYLINE
  8
GRID_MINOR
  6
CONTINUOUS
 62
     8
  5
F8
 66
     1
 10
0.0
 20
0.0
 30
0.0
1001
VDEXTRAPARAM
1071
        0
1071
        0
1071
        0
1040
1.0
1000

1000

1001
VD_XPROPERTIES
  0
VERTEX
  8
GRID_MINOR
  6
CONTINUOUS
 62
     8
  5
F9
 10
3.3
 20
0.0
 30
0.0
  0
VERTEX
  8
GRID_MINOR
  6
CONTINUOUS
 62
     8
  5
FA
 10
3.3
 20
9.0
 30
0.0
  0
SEQEND
  8
0
  5
FB
  0
POLYLINE
  8
GRID_MINOR
  6
CONTINUOUS
 62
     8
  5
FC
 66
     1
 10
0.0
 20
0.0
 30
0.0
1001
VDEXTRAPARAM
1071
        0
1071
        0
1071
        0
1040
1.0
1000

1000

1001
VD_XPROPERTIES
  0
VERTEX
  8
GRID_MINOR
  6
CONTINUOUS
 62
     8
  5
FD
 10
3.4
 20
0.0
 30
0.0
  0
VERTEX
  8
GRID_MINOR
  6
CONTINUOUS
 62
     8
  5
FE
 10
3.4
 20
9.0
 30
0.0
  0
SEQEND
  8
0
  5
FF
  0
POLYLINE
  8
GRID_MINOR
  6
CONTINUOUS
 62
     8
  5
100
 66
     1
 10
0.0
 20
0.0
 30
0.0
1001
VDEXTRAPARAM
1071
        0
1071
        0
1071
        0
1040
1.0
1000

1000

1001
VD_XPROPERTIES
  0
VERTEX
  8
GRID_MINOR
  6
CONTINUOUS
 62
     8
  5
101
 10
3.5
 20
0.0
 30
0.0
  0
VERTEX
  8
GRID_MINOR
  6
CONTINUOUS
 62
     8
  5
102
 10
3.5
 20
9.0
 30
0.0
  0
SEQEND
  8
0
  5
103
  0
POLYLINE
  8
GRID_MINOR
  6
CONTINUOUS
 62
     8
  5
104
 66
     1
 10
0.0
 20
0.0
 30
0.0
1001
VDEXTRAPARAM
1071
        0
1071
        0
1071
        0
1040
1.0
1000

1000

1001
VD_XPROPERTIES
  0
VERTEX
  8
GRID_MINOR
  6
CONTINUOUS
 62
     8
  5
105
 10
3.6
 20
0.0
 30
0.0
  0
VERTEX
  8
GRID_MINOR
  6
CONTINUOUS
 62
     8
  5
106
 10
3.6
 20
9.0
 30
0.0
  0
SEQEND
  8
0
  5
107
  0
POLYLINE
  8
GRID_MINOR
  6
CONTINUOUS
 62
     8
  5
108
 66
     1
 10
0.0
 20
0.0
 30
0.0
1001
VDEXTRAPARAM
1071
        0
1071
        0
1071
        0
1040
1.0
1000

1000

1001
VD_XPROPERTIES
  0
VERTEX
  8
GRID_MINOR
  6
CONTINUOUS
 62
     8
  5
109
 10
3.7
 20
0.0
 30
0.0
  0
VERTEX
  8
GRID_MINOR
  6
CONTINUOUS
 62
     8
  5
10A
 10
3.7
 20
9.0
 30
0.0
  0
SEQEND
  8
0
  5
10B
  0
POLYLINE
  8
GRID_MINOR
  6
CONTINUOUS
 62
     8
  5
10C
 66
     1
 10
0.0
 20
0.0
 30
0.0
1001
VDEXTRAPARAM
1071
        0
1071
        0
1071
        0
1040
1.0
1000

1000

1001
VD_XPROPERTIES
  0
VERTEX
  8
GRID_MINOR
  6
CONTINUOUS
 62
     8
  5
10D
 10
3.8
 20
0.0
 30
0.0
  0
VERTEX
  8
GRID_MINOR
  6
CONTINUOUS
 62
     8
  5
10E
 10
3.8
 20
9.0
 30
0.0
  0
SEQEND
  8
0
  5
10F
  0
POLYLINE
  8
GRID_MINOR
  6
CONTINUOUS
 62
     8
  5
110
 66
     1
 10
0.0
 20
0.0
 30
0.0
1001
VDEXTRAPARAM
1071
        0
1071
        0
1071
        0
1040
1.0
1000

1000

1001
VD_XPROPERTIES
  0
VERTEX
  8
GRID_MINOR
  6
CONTINUOUS
 62
     8
  5
111
 10
3.9
 20
0.0
 30
0.0
  0
VERTEX
  8
GRID_MINOR
  6
CONTINUOUS
 62
     8
  5
112
 10
3.9
 20
9.0
 30
0.0
  0
SEQEND
  8
0
  5
113
  0
POLYLINE
  8
GRID_MINOR
  6
CONTINUOUS
 62
     8
  5
114
 66
     1
 10
0.0
 20
0.0
 30
0.0
1001
VDEXTRAPARAM
1071
        0
1071
        0
1071
        0
1040
1.0
1000

1000

1001
VD_XPROPERTIES
  0
VERTEX
  8
GRID_MINOR
  6
CONTINUOUS
 62
     8
  5
115
 10
4.1
 20
0.0
 30
0.0
  0
VERTEX
  8
GRID_MINOR
  6
CONTINUOUS
 62
     8
  5
116
 10
4.1
 20
9.0
 30
0.0
  0
SEQEND
  8
0
  5
117
  0
POLYLINE
  8
GRID_MINOR
  6
CONTINUOUS
 62
     8
  5
118
 66
     1
 10
0.0
 20
0.0
 30
0.0
1001
VDEXTRAPARAM
1071
        0
1071
        0
1071
        0
1040
1.0
1000

1000

1001
VD_XPROPERTIES
  0
VERTEX
  8
GRID_MINOR
  6
CONTINUOUS
 62
     8
  5
119
 10
4.2
 20
0.0
 30
0.0
  0
VERTEX
  8
GRID_MINOR
  6
CONTINUOUS
 62
     8
  5
11A
 10
4.2
 20
9.0
 30
0.0
  0
SEQEND
  8
0
  5
11B
  0
POLYLINE
  8
GRID_MINOR
  6
CONTINUOUS
 62
     8
  5
11C
 66
     1
 10
0.0
 20
0.0
 30
0.0
1001
VDEXTRAPARAM
1071
        0
1071
        0
1071
        0
1040
1.0
1000

1000

1001
VD_XPROPERTIES
  0
VERTEX
  8
GRID_MINOR
  6
CONTINUOUS
 62
     8
  5
11D
 10
4.3
 20
0.0
 30
0.0
  0
VERTEX
  8
GRID_MINOR
  6
CONTINUOUS
 62
     8
  5
11E
 10
4.3
 20
9.0
 30
0.0
  0
SEQEND
  8
0
  5
11F
  0
POLYLINE
  8
GRID_MINOR
  6
CONTINUOUS
 62
     8
  5
120
 66
     1
 10
0.0
 20
0.0
 30
0.0
1001
VDEXTRAPARAM
1071
        0
1071
        0
1071
        0
1040
1.0
1000

1000

1001
VD_XPROPERTIES
  0
VERTEX
  8
GRID_MINOR
  6
CONTINUOUS
 62
     8
  5
121
 10
4.4
 20
0.0
 30
0.0
  0
VERTEX
  8
GRID_MINOR
  6
CONTINUOUS
 62
     8
  5
122
 10
4.4
 20
9.0
 30
0.0
  0
SEQEND
  8
0
  5
123
  0
POLYLINE
  8
GRID_MINOR
  6
CONTINUOUS
 62
     8
  5
124
 66
     1
 10
0.0
 20
0.0
 30
0.0
1001
VDEXTRAPARAM
1071
        0
1071
        0
1071
        0
1040
1.0
1000

1000

1001
VD_XPROPERTIES
  0
VERTEX
  8
GRID_MINOR
  6
CONTINUOUS
 62
     8
  5
125
 10
4.5
 20
0.0
 30
0.0
  0
VERTEX
  8
GRID_MINOR
  6
CONTINUOUS
 62
     8
  5
126
 10
4.5
 20
9.0
 30
0.0
  0
SEQEND
  8
0
  5
127
  0
POLYLINE
  8
GRID_MINOR
  6
CONTINUOUS
 62
     8
  5
128
 66
     1
 10
0.0
 20
0.0
 30
0.0
1001
VDEXTRAPARAM
1071
        0
1071
        0
1071
        0
1040
1.0
1000

1000

1001
VD_XPROPERTIES
  0
VERTEX
  8
GRID_MINOR
  6
CONTINUOUS
 62
     8
  5
129
 10
4.6
 20
0.0
 30
0.0
  0
VERTEX
  8
GRID_MINOR
  6
CONTINUOUS
 62
     8
  5
12A
 10
4.6
 20
9.0
 30
0.0
  0
SEQEND
  8
0
  5
12B
  0
POLYLINE
  8
GRID_MINOR
  6
CONTINUOUS
 62
     8
  5
12C
 66
     1
 10
0.0
 20
0.0
 30
0.0
1001
VDEXTRAPARAM
1071
        0
1071
        0
1071
        0
1040
1.0
1000

1000

1001
VD_XPROPERTIES
  0
VERTEX
  8
GRID_MINOR
  6
CONTINUOUS
 62
     8
  5
12D
 10
4.7
 20
0.0
 30
0.0
  0
VERTEX
  8
GRID_MINOR
  6
CONTINUOUS
 62
     8
  5
12E
 10
4.7
 20
9.0
 30
0.0
  0
SEQEND
  8
0
  5
12F
  0
POLYLINE
  8
GRID_MINOR
  6
CONTINUOUS
 62
     8
  5
130
 66
     1
 10
0.0
 20
0.0
 30
0.0
1001
VDEXTRAPARAM
1071
        0
1071
        0
1071
        0
1040
1.0
1000

1000

1001
VD_XPROPERTIES
  0
VERTEX
  8
GRID_MINOR
  6
CONTINUOUS
 62
     8
  5
131
 10
4.8
 20
0.0
 30
0.0
  0
VERTEX
  8
GRID_MINOR
  6
CONTINUOUS
 62
     8
  5
132
 10
4.8
 20
9.0
 30
0.0
  0
SEQEND
  8
0
  5
133
  0
POLYLINE
  8
GRID_MINOR
  6
CONTINUOUS
 62
     8
  5
134
 66
     1
 10
0.0
 20
0.0
 30
0.0
1001
VDEXTRAPARAM
1071
        0
1071
        0
1071
        0
1040
1.0
1000

1000

1001
VD_XPROPERTIES
  0
VERTEX
  8
GRID_MINOR
  6
CONTINUOUS
 62
     8
  5
135
 10
4.9
 20
0.0
 30
0.0
  0
VERTEX
  8
GRID_MINOR
  6
CONTINUOUS
 62
     8
  5
136
 10
4.9
 20
9.0
 30
0.0
  0
SEQEND
  8
0
  5
137
  0
POLYLINE
  8
GRID_MINOR
  6
CONTINUOUS
 62
     8
  5
138
 66
     1
 10
0.0
 20
0.0
 30
0.0
1001
VDEXTRAPARAM
1071
        0
1071
        0
1071
        0
1040
1.0
1000

1000

1001
VD_XPROPERTIES
  0
VERTEX
  8
GRID_MINOR
  6
CONTINUOUS
 62
     8
  5
139
 10
5.1
 20
0.0
 30
0.0
  0
VERTEX
  8
GRID_MINOR
  6
CONTINUOUS
 62
     8
  5
13A
 10
5.1
 20
9.0
 30
0.0
  0
SEQEND
  8
0
  5
13B
  0
POLYLINE
  8
GRID_MINOR
  6
CONTINUOUS
 62
     8
  5
13C
 66
     1
 10
0.0
 20
0.0
 30
0.0
1001
VDEXTRAPARAM
1071
        0
1071
        0
1071
        0
1040
1.0
1000

1000

1001
VD_XPROPERTIES
  0
VERTEX
  8
GRID_MINOR
  6
CONTINUOUS
 62
     8
  5
13D
 10
5.2
 20
0.0
 30
0.0
  0
VERTEX
  8
GRID_MINOR
  6
CONTINUOUS
 62
     8
  5
13E
 10
5.2
 20
9.0
 30
0.0
  0
SEQEND
  8
0
  5
13F
  0
POLYLINE
  8
GRID_MINOR
  6
CONTINUOUS
 62
     8
  5
140
 66
     1
 10
0.0
 20
0.0
 30
0.0
1001
VDEXTRAPARAM
1071
        0
1071
        0
1071
        0
1040
1.0
1000

1000

1001
VD_XPROPERTIES
  0
VERTEX
  8
GRID_MINOR
  6
CONTINUOUS
 62
     8
  5
141
 10
5.3
 20
0.0
 30
0.0
  0
VERTEX
  8
GRID_MINOR
  6
CONTINUOUS
 62
     8
  5
142
 10
5.3
 20
9.0
 30
0.0
  0
SEQEND
  8
0
  5
143
  0
POLYLINE
  8
GRID_MINOR
  6
CONTINUOUS
 62
     8
  5
144
 66
     1
 10
0.0
 20
0.0
 30
0.0
1001
VDEXTRAPARAM
1071
        0
1071
        0
1071
        0
1040
1.0
1000

1000

1001
VD_XPROPERTIES
  0
VERTEX
  8
GRID_MINOR
  6
CONTINUOUS
 62
     8
  5
145
 10
5.4
 20
0.0
 30
0.0
  0
VERTEX
  8
GRID_MINOR
  6
CONTINUOUS
 62
     8
  5
146
 10
5.4
 20
9.0
 30
0.0
  0
SEQEND
  8
0
  5
147
  0
POLYLINE
  8
GRID_MINOR
  6
CONTINUOUS
 62
     8
  5
148
 66
     1
 10
0.0
 20
0.0
 30
0.0
1001
VDEXTRAPARAM
1071
        0
1071
        0
1071
        0
1040
1.0
1000

1000

1001
VD_XPROPERTIES
  0
VERTEX
  8
GRID_MINOR
  6
CONTINUOUS
 62
     8
  5
149
 10
5.5
 20
0.0
 30
0.0
  0
VERTEX
  8
GRID_MINOR
  6
CONTINUOUS
 62
     8
  5
14A
 10
5.5
 20
9.0
 30
0.0
  0
SEQEND
  8
0
  5
14B
  0
POLYLINE
  8
GRID_MINOR
  6
CONTINUOUS
 62
     8
  5
14C
 66
     1
 10
0.0
 20
0.0
 30
0.0
1001
VDEXTRAPARAM
1071
        0
1071
        0
1071
        0
1040
1.0
1000

1000

1001
VD_XPROPERTIES
  0
VERTEX
  8
GRID_MINOR
  6
CONTINUOUS
 62
     8
  5
14D
 10
5.6
 20
0.0
 30
0.0
  0
VERTEX
  8
GRID_MINOR
  6
CONTINUOUS
 62
     8
  5
14E
 10
5.6
 20
9.0
 30
0.0
  0
SEQEND
  8
0
  5
14F
  0
POLYLINE
  8
GRID_MINOR
  6
CONTINUOUS
 62
     8
  5
150
 66
     1
 10
0.0
 20
0.0
 30
0.0
1001
VDEXTRAPARAM
1071
        0
1071
        0
1071
        0
1040
1.0
1000

1000

1001
VD_XPROPERTIES
  0
VERTEX
  8
GRID_MINOR
  6
CONTINUOUS
 62
     8
  5
151
 10
5.7
 20
0.0
 30
0.0
  0
VERTEX
  8
GRID_MINOR
  6
CONTINUOUS
 62
     8
  5
152
 10
5.7
 20
9.0
 30
0.0
  0
SEQEND
  8
0
  5
153
  0
POLYLINE
  8
GRID_MINOR
  6
CONTINUOUS
 62
     8
  5
154
 66
     1
 10
0.0
 20
0.0
 30
0.0
1001
VDEXTRAPARAM
1071
        0
1071
        0
1071
        0
1040
1.0
1000

1000

1001
VD_XPROPERTIES
  0
VERTEX
  8
GRID_MINOR
  6
CONTINUOUS
 62
     8
  5
155
 10
5.8
 20
0.0
 30
0.0
  0
VERTEX
  8
GRID_MINOR
  6
CONTINUOUS
 62
     8
  5
156
 10
5.8
 20
9.0
 30
0.0
  0
SEQEND
  8
0
  5
157
  0
POLYLINE
  8
GRID_MINOR
  6
CONTINUOUS
 62
     8
  5
158
 66
     1
 10
0.0
 20
0.0
 30
0.0
1001
VDEXTRAPARAM
1071
        0
1071
        0
1071
        0
1040
1.0
1000

1000

1001
VD_XPROPERTIES
  0
VERTEX
  8
GRID_MINOR
  6
CONTINUOUS
 62
     8
  5
159
 10
5.9
 20
0.0
 30
0.0
  0
VERTEX
  8
GRID_MINOR
  6
CONTINUOUS
 62
     8
  5
15A
 10
5.9
 20
9.0
 30
0.0
  0
SEQEND
  8
0
  5
15B
  0
POLYLINE
  8
GRID_MINOR
  6
CONTINUOUS
 62
     8
  5
15C
 66
     1
 10
0.0
 20
0.0
 30
0.0
1001
VDEXTRAPARAM
1071
        0
1071
        0
1071
        0
1040
1.0
1000

1000

1001
VD_XPROPERTIES
  0
VERTEX
  8
GRID_MINOR
  6
CONTINUOUS
 62
     8
  5
15D
 10
6.1
 20
0.0
 30
0.0
  0
VERTEX
  8
GRID_MINOR
  6
CONTINUOUS
 62
     8
  5
15E
 10
6.1
 20
9.0
 30
0.0
  0
SEQEND
  8
0
  5
15F
  0
POLYLINE
  8
GRID_MINOR
  6
CONTINUOUS
 62
     8
  5
160
 66
     1
 10
0.0
 20
0.0
 30
0.0
1001
VDEXTRAPARAM
1071
        0
1071
        0
1071
        0
1040
1.0
1000

1000

1001
VD_XPROPERTIES
  0
VERTEX
  8
GRID_MINOR
  6
CONTINUOUS
 62
     8
  5
161
 10
6.2
 20
0.0
 30
0.0
  0
VERTEX
  8
GRID_MINOR
  6
CONTINUOUS
 62
     8
  5
162
 10
6.2
 20
9.0
 30
0.0
  0
SEQEND
  8
0
  5
163
  0
POLYLINE
  8
GRID_MINOR
  6
CONTINUOUS
 62
     8
  5
164
 66
     1
 10
0.0
 20
0.0
 30
0.0
1001
VDEXTRAPARAM
1071
        0
1071
        0
1071
        0
1040
1.0
1000

1000

1001
VD_XPROPERTIES
  0
VERTEX
  8
GRID_MINOR
  6
CONTINUOUS
 62
     8
  5
165
 10
6.3
 20
0.0
 30
0.0
  0
VERTEX
  8
GRID_MINOR
  6
CONTINUOUS
 62
     8
  5
166
 10
6.3
 20
9.0
 30
0.0
  0
SEQEND
  8
0
  5
167
  0
POLYLINE
  8
GRID_MINOR
  6
CONTINUOUS
 62
     8
  5
168
 66
     1
 10
0.0
 20
0.0
 30
0.0
1001
VDEXTRAPARAM
1071
        0
1071
        0
1071
        0
1040
1.0
1000

1000

1001
VD_XPROPERTIES
  0
VERTEX
  8
GRID_MINOR
  6
CONTINUOUS
 62
     8
  5
169
 10
6.4
 20
0.0
 30
0.0
  0
VERTEX
  8
GRID_MINOR
  6
CONTINUOUS
 62
     8
  5
16A
 10
6.4
 20
9.0
 30
0.0
  0
SEQEND
  8
0
  5
16B
  0
POLYLINE
  8
GRID_MINOR
  6
CONTINUOUS
 62
     8
  5
16C
 66
     1
 10
0.0
 20
0.0
 30
0.0
1001
VDEXTRAPARAM
1071
        0
1071
        0
1071
        0
1040
1.0
1000

1000

1001
VD_XPROPERTIES
  0
VERTEX
  8
GRID_MINOR
  6
CONTINUOUS
 62
     8
  5
16D
 10
6.5
 20
0.0
 30
0.0
  0
VERTEX
  8
GRID_MINOR
  6
CONTINUOUS
 62
     8
  5
16E
 10
6.5
 20
9.0
 30
0.0
  0
SEQEND
  8
0
  5
16F
  0
POLYLINE
  8
GRID_MINOR
  6
CONTINUOUS
 62
     8
  5
170
 66
     1
 10
0.0
 20
0.0
 30
0.0
1001
VDEXTRAPARAM
1071
        0
1071
        0
1071
        0
1040
1.0
1000

1000

1001
VD_XPROPERTIES
  0
VERTEX
  8
GRID_MINOR
  6
CONTINUOUS
 62
     8
  5
171
 10
6.6
 20
0.0
 30
0.0
  0
VERTEX
  8
GRID_MINOR
  6
CONTINUOUS
 62
     8
  5
172
 10
6.6
 20
9.0
 30
0.0
  0
SEQEND
  8
0
  5
173
  0
POLYLINE
  8
GRID_MINOR
  6
CONTINUOUS
 62
     8
  5
174
 66
     1
 10
0.0
 20
0.0
 30
0.0
1001
VDEXTRAPARAM
1071
        0
1071
        0
1071
        0
1040
1.0
1000

1000

1001
VD_XPROPERTIES
  0
VERTEX
  8
GRID_MINOR
  6
CONTINUOUS
 62
     8
  5
175
 10
6.7
 20
0.0
 30
0.0
  0
VERTEX
  8
GRID_MINOR
  6
CONTINUOUS
 62
     8
  5
176
 10
6.7
 20
9.0
 30
0.0
  0
SEQEND
  8
0
  5
177
  0
POLYLINE
  8
GRID_MAJOR
  5
178
 66
     1
 10
0.0
 20
0.0
 30
0.0
1001
VDEXTRAPARAM
1071
        0
1071
        0
1071
        0
1040
1.0
1000

1000

1001
VD_XPROPERTIES
  0
VERTEX
  8
GRID_MAJOR
  5
179
 10
7.0
 20
0.0
 30
0.0
  0
VERTEX
  8
GRID_MAJOR
  5
17A
 10
7.0
 20
9.0
 30
0.0
  0
SEQEND
  8
0
  5
17B
  0
POLYLINE
  8
GRID_MINOR
  6
CONTINUOUS
 62
     8
  5
17C
 66
     1
 10
0.0
 20
0.0
 30
0.0
1001
VDEXTRAPARAM
1071
        0
1071
        0
1071
        0
1040
1.0
1000

1000

1001
VD_XPROPERTIES
  0
VERTEX
  8
GRID_MINOR
  6
CONTINUOUS
 62
     8
  5
17D
 10
6.8
 20
0.0
 30
0.0
  0
VERTEX
  8
GRID_MINOR
  6
CONTINUOUS
 62
     8
  5
17E
 10
6.8
 20
9.0
 30
0.0
  0
SEQEND
  8
0
  5
17F
  0
POLYLINE
  8
GRID_MINOR
  6
CONTINUOUS
 62
     8
  5
180
 66
     1
 10
0.0
 20
0.0
 30
0.0
1001
VDEXTRAPARAM
1071
        0
1071
        0
1071
        0
1040
1.0
1000

1000

1001
VD_XPROPERTIES
  0
VERTEX
  8
GRID_MINOR
  6
CONTINUOUS
 62
     8
  5
181
 10
6.9
 20
0.0
 30
0.0
  0
VERTEX
  8
GRID_MINOR
  6
CONTINUOUS
 62
     8
  5
182
 10
6.9
 20
9.0
 30
0.0
  0
SEQEND
  8
0
  5
183
  0
POLYLINE
  8
GRID_MINOR
  6
CONTINUOUS
 62
     8
  5
184
 66
     1
 10
0.0
 20
0.0
 30
0.0
1001
VDEXTRAPARAM
1071
        0
1071
        0
1071
        0
1040
1.0
1000

1000

1001
VD_XPROPERTIES
  0
VERTEX
  8
GRID_MINOR
  6
CONTINUOUS
 62
     8
  5
185
 10
7.1
 20
0.0
 30
0.0
  0
VERTEX
  8
GRID_MINOR
  6
CONTINUOUS
 62
     8
  5
186
 10
7.1
 20
9.0
 30
0.0
  0
SEQEND
  8
0
  5
187
  0
POLYLINE
  8
GRID_MINOR
  6
CONTINUOUS
 62
     8
  5
188
 66
     1
 10
0.0
 20
0.0
 30
0.0
1001
VDEXTRAPARAM
1071
        0
1071
        0
1071
        0
1040
1.0
1000

1000

1001
VD_XPROPERTIES
  0
VERTEX
  8
GRID_MINOR
  6
CONTINUOUS
 62
     8
  5
189
 10
7.2
 20
0.0
 30
0.0
  0
VERTEX
  8
GRID_MINOR
  6
CONTINUOUS
 62
     8
  5
18A
 10
7.2
 20
9.0
 30
0.0
  0
SEQEND
  8
0
  5
18B
  0
POLYLINE
  8
GRID_MINOR
  6
CONTINUOUS
 62
     8
  5
18C
 66
     1
 10
0.0
 20
0.0
 30
0.0
1001
VDEXTRAPARAM
1071
        0
1071
        0
1071
        0
1040
1.0
1000

1000

1001
VD_XPROPERTIES
  0
VERTEX
  8
GRID_MINOR
  6
CONTINUOUS
 62
     8
  5
18D
 10
7.3
 20
0.0
 30
0.0
  0
VERTEX
  8
GRID_MINOR
  6
CONTINUOUS
 62
     8
  5
18E
 10
7.3
 20
9.0
 30
0.0
  0
SEQEND
  8
0
  5
18F
  0
POLYLINE
  8
GRID_MINOR
  6
CONTINUOUS
 62
     8
  5
190
 66
     1
 10
0.0
 20
0.0
 30
0.0
1001
VDEXTRAPARAM
1071
        0
1071
        0
1071
        0
1040
1.0
1000

1000

1001
VD_XPROPERTIES
  0
VERTEX
  8
GRID_MINOR
  6
CONTINUOUS
 62
     8
  5
191
 10
7.4
 20
0.0
 30
0.0
  0
VERTEX
  8
GRID_MINOR
  6
CONTINUOUS
 62
     8
  5
192
 10
7.4
 20
9.0
 30
0.0
  0
SEQEND
  8
0
  5
193
  0
POLYLINE
  8
GRID_MINOR
  6
CONTINUOUS
 62
     8
  5
194
 66
     1
 10
0.0
 20
0.0
 30
0.0
1001
VDEXTRAPARAM
1071
        0
1071
        0
1071
        0
1040
1.0
1000

1000

1001
VD_XPROPERTIES
  0
VERTEX
  8
GRID_MINOR
  6
CONTINUOUS
 62
     8
  5
195
 10
7.5
 20
0.0
 30
0.0
  0
VERTEX
  8
GRID_MINOR
  6
CONTINUOUS
 62
     8
  5
196
 10
7.5
 20
9.0
 30
0.0
  0
SEQEND
  8
0
  5
197
  0
POLYLINE
  8
BORDERLINE
  5
198
 66
     1
 10
0.0
 20
0.0
 30
0.0
1001
VDEXTRAPARAM
1071
        0
1071
        0
1071
        0
1040
1.0
1000

1000

1001
VD_XPROPERTIES
  0
VERTEX
  8
BORDERLINE
  5
199
 10
13.5
 20
-0.75
 30
0.0
  0
VERTEX
  8
BORDERLINE
  5
19A
 10
13.5
 20
9.25
 30
0.0
  0
SEQEND
  8
0
  5
19B
  0
LINE
  8
BORDERLINE
  5
19C
 10
14.0
 20
3.4
 30
0.0
 11
14.0
 21
9.25
 31
0.0
1001
VD_XPROPERTIES
  0
POLYLINE
  8
GRID_MAJOR
  5
19D
 66
     1
 10
0.0
 20
0.0
 30
0.0
1001
VDEXTRAPARAM
1071
        0
1071
        0
1071
        0
1040
1.0
1000

1000

1001
VD_XPROPERTIES
  0
VERTEX
  8
GRID_MAJOR
  5
19E
 10
13.0
 20
0.0
 30
0.0
  0
VERTEX
  8
GRID_MAJOR
  5
19F
 10
13.0
 20
9.0
 30
0.0
  0
SEQEND
  8
0
  5
1A0
  0
POLYLINE
  8
GRID_MAJOR
  5
1A1
 66
     1
 10
0.0
 20
0.0
 30
0.0
1001
VDEXTRAPARAM
1071
        0
1071
        0
1071
        0
1040
1.0
1000

1000

1001
VD_XPROPERTIES
  0
VERTEX
  8
GRID_MAJOR
  5
1A2
 10
10.0
 20
0.0
 30
0.0
  0
VERTEX
  8
GRID_MAJOR
  5
1A3
 10
10.0
 20
9.0
 30
0.0
  0
SEQEND
  8
0
  5
1A4
  0
POLYLINE
  8
GRID_MAJOR
  5
1A5
 66
     1
 10
0.0
 20
0.0
 30
0.0
1001
VDEXTRAPARAM
1071
        0
1071
        0
1071
        0
1040
1.0
1000

1000

1001
VD_XPROPERTIES
  0
VERTEX
  8
GRID_MAJOR
  5
1A6
 10
9.0
 20
0.0
 30
0.0
  0
VERTEX
  8
GRID_MAJOR
  5
1A7
 10
9.0
 20
9.0
 30
0.0
  0
SEQEND
  8
0
  5
1A8
  0
POLYLINE
  8
GRID_MAJOR
  5
1A9
 66
     1
 10
0.0
 20
0.0
 30
0.0
1001
VDEXTRAPARAM
1071
        0
1071
        0
1071
        0
1040
1.0
1000

1000

1001
VD_XPROPERTIES
  0
VERTEX
  8
GRID_MAJOR
  5
1AA
 10
8.0
 20
0.0
 30
0.0
  0
VERTEX
  8
GRID_MAJOR
  5
1AB
 10
8.0
 20
9.0
 30
0.0
  0
SEQEND
  8
0
  5
1AC
  0
POLYLINE
  8
GRID_MINOR
  6
CONTINUOUS
 62
     8
  5
1AD
 66
     1
 10
0.0
 20
0.0
 30
0.0
1001
VDEXTRAPARAM
1071
        0
1071
        0
1071
        0
1040
1.0
1000

1000

1001
VD_XPROPERTIES
  0
VERTEX
  8
GRID_MINOR
  6
CONTINUOUS
 62
     8
  5
1AE
 10
7.8
 20
0.0
 30
0.0
  0
VERTEX
  8
GRID_MINOR
  6
CONTINUOUS
 62
     8
  5
1AF
 10
7.8
 20
9.0
 30
0.0
  0
SEQEND
  8
0
  5
1B0
  0
POLYLINE
  8
GRID_MINOR
  6
CONTINUOUS
 62
     8
  5
1B1
 66
     1
 10
0.0
 20
0.0
 30
0.0
1001
VDEXTRAPARAM
1071
        0
1071
        0
1071
        0
1040
1.0
1000

1000

1001
VD_XPROPERTIES
  0
VERTEX
  8
GRID_MINOR
  6
CONTINUOUS
 62
     8
  5
1B2
 10
7.9
 20
0.0
 30
0.0
  0
VERTEX
  8
GRID_MINOR
  6
CONTINUOUS
 62
     8
  5
1B3
 10
7.9
 20
9.0
 30
0.0
  0
SEQEND
  8
0
  5
1B4
  0
POLYLINE
  8
GRID_MINOR
  6
CONTINUOUS
 62
     8
  5
1B5
 66
     1
 10
0.0
 20
0.0
 30
0.0
1001
VDEXTRAPARAM
1071
        0
1071
        0
1071
        0
1040
1.0
1000

1000

1001
VD_XPROPERTIES
  0
VERTEX
  8
GRID_MINOR
  6
CONTINUOUS
 62
     8
  5
1B6
 10
8.1
 20
0.0
 30
0.0
  0
VERTEX
  8
GRID_MINOR
  6
CONTINUOUS
 62
     8
  5
1B7
 10
8.1
 20
9.0
 30
0.0
  0
SEQEND
  8
0
  5
1B8
  0
POLYLINE
  8
GRID_MINOR
  6
CONTINUOUS
 62
     8
  5
1B9
 66
     1
 10
0.0
 20
0.0
 30
0.0
1001
VDEXTRAPARAM
1071
        0
1071
        0
1071
        0
1040
1.0
1000

1000

1001
VD_XPROPERTIES
  0
VERTEX
  8
GRID_MINOR
  6
CONTINUOUS
 62
     8
  5
1BA
 10
8.2
 20
0.0
 30
0.0
  0
VERTEX
  8
GRID_MINOR
  6
CONTINUOUS
 62
     8
  5
1BB
 10
8.2
 20
9.0
 30
0.0
  0
SEQEND
  8
0
  5
1BC
  0
POLYLINE
  8
GRID_MINOR
  6
CONTINUOUS
 62
     8
  5
1BD
 66
     1
 10
0.0
 20
0.0
 30
0.0
1001
VDEXTRAPARAM
1071
        0
1071
        0
1071
        0
1040
1.0
1000

1000

1001
VD_XPROPERTIES
  0
VERTEX
  8
GRID_MINOR
  6
CONTINUOUS
 62
     8
  5
1BE
 10
8.3
 20
0.0
 30
0.0
  0
VERTEX
  8
GRID_MINOR
  6
CONTINUOUS
 62
     8
  5
1BF
 10
8.3
 20
9.0
 30
0.0
  0
SEQEND
  8
0
  5
1C0
  0
POLYLINE
  8
GRID_MINOR
  6
CONTINUOUS
 62
     8
  5
1C1
 66
     1
 10
0.0
 20
0.0
 30
0.0
1001
VDEXTRAPARAM
1071
        0
1071
        0
1071
        0
1040
1.0
1000

1000

1001
VD_XPROPERTIES
  0
VERTEX
  8
GRID_MINOR
  6
CONTINUOUS
 62
     8
  5
1C2
 10
8.4
 20
0.0
 30
0.0
  0
VERTEX
  8
GRID_MINOR
  6
CONTINUOUS
 62
     8
  5
1C3
 10
8.4
 20
9.0
 30
0.0
  0
SEQEND
  8
0
  5
1C4
  0
POLYLINE
  8
GRID_MINOR
  6
CONTINUOUS
 62
     8
  5
1C5
 66
     1
 10
0.0
 20
0.0
 30
0.0
1001
VDEXTRAPARAM
1071
        0
1071
        0
1071
        0
1040
1.0
1000

1000

1001
VD_XPROPERTIES
  0
VERTEX
  8
GRID_MINOR
  6
CONTINUOUS
 62
     8
  5
1C6
 10
8.5
 20
0.0
 30
0.0
  0
VERTEX
  8
GRID_MINOR
  6
CONTINUOUS
 62
     8
  5
1C7
 10
8.5
 20
9.0
 30
0.0
  0
SEQEND
  8
0
  5
1C8
  0
POLYLINE
  8
GRID_MINOR
  6
CONTINUOUS
 62
     8
  5
1C9
 66
     1
 10
0.0
 20
0.0
 30
0.0
1001
VDEXTRAPARAM
1071
        0
1071
        0
1071
        0
1040
1.0
1000

1000

1001
VD_XPROPERTIES
  0
VERTEX
  8
GRID_MINOR
  6
CONTINUOUS
 62
     8
  5
1CA
 10
8.6
 20
0.0
 30
0.0
  0
VERTEX
  8
GRID_MINOR
  6
CONTINUOUS
 62
     8
  5
1CB
 10
8.6
 20
9.0
 30
0.0
  0
SEQEND
  8
0
  5
1CC
  0
POLYLINE
  8
GRID_MINOR
  6
CONTINUOUS
 62
     8
  5
1CD
 66
     1
 10
0.0
 20
0.0
 30
0.0
1001
VDEXTRAPARAM
1071
        0
1071
        0
1071
        0
1040
1.0
1000

1000

1001
VD_XPROPERTIES
  0
VERTEX
  8
GRID_MINOR
  6
CONTINUOUS
 62
     8
  5
1CE
 10
8.7
 20
0.0
 30
0.0
  0
VERTEX
  8
GRID_MINOR
  6
CONTINUOUS
 62
     8
  5
1CF
 10
8.7
 20
9.0
 30
0.0
  0
SEQEND
  8
0
  5
1D0
  0
POLYLINE
  8
GRID_MINOR
  6
CONTINUOUS
 62
     8
  5
1D1
 66
     1
 10
0.0
 20
0.0
 30
0.0
1001
VDEXTRAPARAM
1071
        0
1071
        0
1071
        0
1040
1.0
1000

1000

1001
VD_XPROPERTIES
  0
VERTEX
  8
GRID_MINOR
  6
CONTINUOUS
 62
     8
  5
1D2
 10
8.8
 20
0.0
 30
0.0
  0
VERTEX
  8
GRID_MINOR
  6
CONTINUOUS
 62
     8
  5
1D3
 10
8.8
 20
9.0
 30
0.0
  0
SEQEND
  8
0
  5
1D4
  0
POLYLINE
  8
GRID_MINOR
  6
CONTINUOUS
 62
     8
  5
1D5
 66
     1
 10
0.0
 20
0.0
 30
0.0
1001
VDEXTRAPARAM
1071
        0
1071
        0
1071
        0
1040
1.0
1000

1000

1001
VD_XPROPERTIES
  0
VERTEX
  8
GRID_MINOR
  6
CONTINUOUS
 62
     8
  5
1D6
 10
8.9
 20
0.0
 30
0.0
  0
VERTEX
  8
GRID_MINOR
  6
CONTINUOUS
 62
     8
  5
1D7
 10
8.9
 20
9.0
 30
0.0
  0
SEQEND
  8
0
  5
1D8
  0
POLYLINE
  8
GRID_MINOR
  6
CONTINUOUS
 62
     8
  5
1D9
 66
     1
 10
0.0
 20
0.0
 30
0.0
1001
VDEXTRAPARAM
1071
        0
1071
        0
1071
        0
1040
1.0
1000

1000

1001
VD_XPROPERTIES
  0
VERTEX
  8
GRID_MINOR
  6
CONTINUOUS
 62
     8
  5
1DA
 10
9.1
 20
0.0
 30
0.0
  0
VERTEX
  8
GRID_MINOR
  6
CONTINUOUS
 62
     8
  5
1DB
 10
9.1
 20
9.0
 30
0.0
  0
SEQEND
  8
0
  5
1DC
  0
POLYLINE
  8
GRID_MINOR
  6
CONTINUOUS
 62
     8
  5
1DD
 66
     1
 10
0.0
 20
0.0
 30
0.0
1001
VDEXTRAPARAM
1071
        0
1071
        0
1071
        0
1040
1.0
1000

1000

1001
VD_XPROPERTIES
  0
VERTEX
  8
GRID_MINOR
  6
CONTINUOUS
 62
     8
  5
1DE
 10
9.2
 20
0.0
 30
0.0
  0
VERTEX
  8
GRID_MINOR
  6
CONTINUOUS
 62
     8
  5
1DF
 10
9.2
 20
9.0
 30
0.0
  0
SEQEND
  8
0
  5
1E0
  0
POLYLINE
  8
GRID_MINOR
  6
CONTINUOUS
 62
     8
  5
1E1
 66
     1
 10
0.0
 20
0.0
 30
0.0
1001
VDEXTRAPARAM
1071
        0
1071
        0
1071
        0
1040
1.0
1000

1000

1001
VD_XPROPERTIES
  0
VERTEX
  8
GRID_MINOR
  6
CONTINUOUS
 62
     8
  5
1E2
 10
9.3
 20
0.0
 30
0.0
  0
VERTEX
  8
GRID_MINOR
  6
CONTINUOUS
 62
     8
  5
1E3
 10
9.3
 20
9.0
 30
0.0
  0
SEQEND
  8
0
  5
1E4
  0
POLYLINE
  8
GRID_MINOR
  6
CONTINUOUS
 62
     8
  5
1E5
 66
     1
 10
0.0
 20
0.0
 30
0.0
1001
VDEXTRAPARAM
1071
        0
1071
        0
1071
        0
1040
1.0
1000

1000

1001
VD_XPROPERTIES
  0
VERTEX
  8
GRID_MINOR
  6
CONTINUOUS
 62
     8
  5
1E6
 10
9.4
 20
0.0
 30
0.0
  0
VERTEX
  8
GRID_MINOR
  6
CONTINUOUS
 62
     8
  5
1E7
 10
9.4
 20
9.0
 30
0.0
  0
SEQEND
  8
0
  5
1E8
  0
POLYLINE
  8
GRID_MINOR
  6
CONTINUOUS
 62
     8
  5
1E9
 66
     1
 10
0.0
 20
0.0
 30
0.0
1001
VDEXTRAPARAM
1071
        0
1071
        0
1071
        0
1040
1.0
1000

1000

1001
VD_XPROPERTIES
  0
VERTEX
  8
GRID_MINOR
  6
CONTINUOUS
 62
     8
  5
1EA
 10
9.5
 20
0.0
 30
0.0
  0
VERTEX
  8
GRID_MINOR
  6
CONTINUOUS
 62
     8
  5
1EB
 10
9.5
 20
9.0
 30
0.0
  0
SEQEND
  8
0
  5
1EC
  0
POLYLINE
  8
GRID_MINOR
  6
CONTINUOUS
 62
     8
  5
1ED
 66
     1
 10
0.0
 20
0.0
 30
0.0
1001
VDEXTRAPARAM
1071
        0
1071
        0
1071
        0
1040
1.0
1000

1000

1001
VD_XPROPERTIES
  0
VERTEX
  8
GRID_MINOR
  6
CONTINUOUS
 62
     8
  5
1EE
 10
9.6
 20
0.0
 30
0.0
  0
VERTEX
  8
GRID_MINOR
  6
CONTINUOUS
 62
     8
  5
1EF
 10
9.6
 20
9.0
 30
0.0
  0
SEQEND
  8
0
  5
1F0
  0
POLYLINE
  8
GRID_MINOR
  6
CONTINUOUS
 62
     8
  5
1F1
 66
     1
 10
0.0
 20
0.0
 30
0.0
1001
VDEXTRAPARAM
1071
        0
1071
        0
1071
        0
1040
1.0
1000

1000

1001
VD_XPROPERTIES
  0
VERTEX
  8
GRID_MINOR
  6
CONTINUOUS
 62
     8
  5
1F2
 10
9.7
 20
0.0
 30
0.0
  0
VERTEX
  8
GRID_MINOR
  6
CONTINUOUS
 62
     8
  5
1F3
 10
9.7
 20
9.0
 30
0.0
  0
SEQEND
  8
0
  5
1F4
  0
POLYLINE
  8
GRID_MINOR
  6
CONTINUOUS
 62
     8
  5
1F5
 66
     1
 10
0.0
 20
0.0
 30
0.0
1001
VDEXTRAPARAM
1071
        0
1071
        0
1071
        0
1040
1.0
1000

1000

1001
VD_XPROPERTIES
  0
VERTEX
  8
GRID_MINOR
  6
CONTINUOUS
 62
     8
  5
1F6
 10
9.8
 20
0.0
 30
0.0
  0
VERTEX
  8
GRID_MINOR
  6
CONTINUOUS
 62
     8
  5
1F7
 10
9.8
 20
9.0
 30
0.0
  0
SEQEND
  8
0
  5
1F8
  0
POLYLINE
  8
GRID_MINOR
  6
CONTINUOUS
 62
     8
  5
1F9
 66
     1
 10
0.0
 20
0.0
 30
0.0
1001
VDEXTRAPARAM
1071
        0
1071
        0
1071
        0
1040
1.0
1000

1000

1001
VD_XPROPERTIES
  0
VERTEX
  8
GRID_MINOR
  6
CONTINUOUS
 62
     8
  5
1FA
 10
9.9
 20
0.0
 30
0.0
  0
VERTEX
  8
GRID_MINOR
  6
CONTINUOUS
 62
     8
  5
1FB
 10
9.9
 20
9.0
 30
0.0
  0
SEQEND
  8
0
  5
1FC
  0
LINE
  8
GRID_MAJOR
  6
CONTINUOUS
  5
1FD
 10
11.0
 20
2.0
 30
0.0
 11
11.0
 21
9.0
 31
0.0
1001
VD_XPROPERTIES
  0
LINE
  8
GRID_MAJOR
  6
CONTINUOUS
  5
1FE
 10
12.0
 20
2.0
 30
0.0
 11
12.0
 21
9.0
 31
0.0
1001
VD_XPROPERTIES
  0
POLYLINE
  8
GRID_MINOR
  6
CONTINUOUS
 62
     8
  5
1FF
 66
     1
 10
0.0
 20
0.0
 30
0.0
1001
VDEXTRAPARAM
1071
        0
1071
        0
1071
        0
1040
1.0
1000

1000

1001
VD_XPROPERTIES
  0
VERTEX
  8
GRID_MINOR
  6
CONTINUOUS
 62
     8
  5
200
 10
10.1
 20
2.0
 30
0.0
  0
VERTEX
  8
GRID_MINOR
  6
CONTINUOUS
 62
     8
  5
201
 10
10.1
 20
9.0
 30
0.0
  0
SEQEND
  8
0
  5
202
  0
POLYLINE
  8
GRID_MINOR
  6
CONTINUOUS
 62
     8
  5
203
 66
     1
 10
0.0
 20
0.0
 30
0.0
1001
VDEXTRAPARAM
1071
        0
1071
        0
1071
        0
1040
1.0
1000

1000

1001
VD_XPROPERTIES
  0
VERTEX
  8
GRID_MINOR
  6
CONTINUOUS
 62
     8
  5
204
 10
10.2
 20
2.0
 30
0.0
  0
VERTEX
  8
GRID_MINOR
  6
CONTINUOUS
 62
     8
  5
205
 10
10.2
 20
9.0
 30
0.0
  0
SEQEND
  8
0
  5
206
  0
POLYLINE
  8
GRID_MINOR
  6
CONTINUOUS
 62
     8
  5
207
 66
     1
 10
0.0
 20
0.0
 30
0.0
1001
VDEXTRAPARAM
1071
        0
1071
        0
1071
        0
1040
1.0
1000

1000

1001
VD_XPROPERTIES
  0
VERTEX
  8
GRID_MINOR
  6
CONTINUOUS
 62
     8
  5
208
 10
10.3
 20
2.0
 30
0.0
  0
VERTEX
  8
GRID_MINOR
  6
CONTINUOUS
 62
     8
  5
209
 10
10.3
 20
9.0
 30
0.0
  0
SEQEND
  8
0
  5
20A
  0
POLYLINE
  8
GRID_MINOR
  6
CONTINUOUS
 62
     8
  5
20B
 66
     1
 10
0.0
 20
0.0
 30
0.0
1001
VDEXTRAPARAM
1071
        0
1071
        0
1071
        0
1040
1.0
1000

1000

1001
VD_XPROPERTIES
  0
VERTEX
  8
GRID_MINOR
  6
CONTINUOUS
 62
     8
  5
20C
 10
10.4
 20
2.0
 30
0.0
  0
VERTEX
  8
GRID_MINOR
  6
CONTINUOUS
 62
     8
  5
20D
 10
10.4
 20
9.0
 30
0.0
  0
SEQEND
  8
0
  5
20E
  0
POLYLINE
  8
GRID_MINOR
  6
CONTINUOUS
 62
     8
  5
20F
 66
     1
 10
0.0
 20
0.0
 30
0.0
1001
VDEXTRAPARAM
1071
        0
1071
        0
1071
        0
1040
1.0
1000

1000

1001
VD_XPROPERTIES
  0
VERTEX
  8
GRID_MINOR
  6
CONTINUOUS
 62
     8
  5
210
 10
10.5
 20
2.0
 30
0.0
  0
VERTEX
  8
GRID_MINOR
  6
CONTINUOUS
 62
     8
  5
211
 10
10.5
 20
9.0
 30
0.0
  0
SEQEND
  8
0
  5
212
  0
POLYLINE
  8
GRID_MINOR
  6
CONTINUOUS
 62
     8
  5
213
 66
     1
 10
0.0
 20
0.0
 30
0.0
1001
VDEXTRAPARAM
1071
        0
1071
        0
1071
        0
1040
1.0
1000

1000

1001
VD_XPROPERTIES
  0
VERTEX
  8
GRID_MINOR
  6
CONTINUOUS
 62
     8
  5
214
 10
10.6
 20
2.0
 30
0.0
  0
VERTEX
  8
GRID_MINOR
  6
CONTINUOUS
 62
     8
  5
215
 10
10.6
 20
9.0
 30
0.0
  0
SEQEND
  8
0
  5
216
  0
POLYLINE
  8
GRID_MINOR
  6
CONTINUOUS
 62
     8
  5
217
 66
     1
 10
0.0
 20
0.0
 30
0.0
1001
VDEXTRAPARAM
1071
        0
1071
        0
1071
        0
1040
1.0
1000

1000

1001
VD_XPROPERTIES
  0
VERTEX
  8
GRID_MINOR
  6
CONTINUOUS
 62
     8
  5
218
 10
10.7
 20
2.0
 30
0.0
  0
VERTEX
  8
GRID_MINOR
  6
CONTINUOUS
 62
     8
  5
219
 10
10.7
 20
9.0
 30
0.0
  0
SEQEND
  8
0
  5
21A
  0
POLYLINE
  8
GRID_MINOR
  6
CONTINUOUS
 62
     8
  5
21B
 66
     1
 10
0.0
 20
0.0
 30
0.0
1001
VDEXTRAPARAM
1071
        0
1071
        0
1071
        0
1040
1.0
1000

1000

1001
VD_XPROPERTIES
  0
VERTEX
  8
GRID_MINOR
  6
CONTINUOUS
 62
     8
  5
21C
 10
10.8
 20
2.0
 30
0.0
  0
VERTEX
  8
GRID_MINOR
  6
CONTINUOUS
 62
     8
  5
21D
 10
10.8
 20
9.0
 30
0.0
  0
SEQEND
  8
0
  5
21E
  0
POLYLINE
  8
GRID_MINOR
  6
CONTINUOUS
 62
     8
  5
21F
 66
     1
 10
0.0
 20
0.0
 30
0.0
1001
VDEXTRAPARAM
1071
        0
1071
        0
1071
        0
1040
1.0
1000

1000

1001
VD_XPROPERTIES
  0
VERTEX
  8
GRID_MINOR
  6
CONTINUOUS
 62
     8
  5
220
 10
10.9
 20
2.0
 30
0.0
  0
VERTEX
  8
GRID_MINOR
  6
CONTINUOUS
 62
     8
  5
221
 10
10.9
 20
9.0
 30
0.0
  0
SEQEND
  8
0
  5
222
  0
POLYLINE
  8
GRID_MINOR
  6
CONTINUOUS
 62
     8
  5
223
 66
     1
 10
0.0
 20
0.0
 30
0.0
1001
VDEXTRAPARAM
1071
        0
1071
        0
1071
        0
1040
1.0
1000

1000

1001
VD_XPROPERTIES
  0
VERTEX
  8
GRID_MINOR
  6
CONTINUOUS
 62
     8
  5
224
 10
11.1
 20
2.0
 30
0.0
  0
VERTEX
  8
GRID_MINOR
  6
CONTINUOUS
 62
     8
  5
225
 10
11.1
 20
9.0
 30
0.0
  0
SEQEND
  8
0
  5
226
  0
POLYLINE
  8
GRID_MINOR
  6
CONTINUOUS
 62
     8
  5
227
 66
     1
 10
0.0
 20
0.0
 30
0.0
1001
VDEXTRAPARAM
1071
        0
1071
        0
1071
        0
1040
1.0
1000

1000

1001
VD_XPROPERTIES
  0
VERTEX
  8
GRID_MINOR
  6
CONTINUOUS
 62
     8
  5
228
 10
11.2
 20
2.0
 30
0.0
  0
VERTEX
  8
GRID_MINOR
  6
CONTINUOUS
 62
     8
  5
229
 10
11.2
 20
9.0
 30
0.0
  0
SEQEND
  8
0
  5
22A
  0
POLYLINE
  8
GRID_MINOR
  6
CONTINUOUS
 62
     8
  5
22B
 66
     1
 10
0.0
 20
0.0
 30
0.0
1001
VDEXTRAPARAM
1071
        0
1071
        0
1071
        0
1040
1.0
1000

1000

1001
VD_XPROPERTIES
  0
VERTEX
  8
GRID_MINOR
  6
CONTINUOUS
 62
     8
  5
22C
 10
11.3
 20
2.0
 30
0.0
  0
VERTEX
  8
GRID_MINOR
  6
CONTINUOUS
 62
     8
  5
22D
 10
11.3
 20
9.0
 30
0.0
  0
SEQEND
  8
0
  5
22E
  0
POLYLINE
  8
GRID_MINOR
  6
CONTINUOUS
 62
     8
  5
22F
 66
     1
 10
0.0
 20
0.0
 30
0.0
1001
VDEXTRAPARAM
1071
        0
1071
        0
1071
        0
1040
1.0
1000

1000

1001
VD_XPROPERTIES
  0
VERTEX
  8
GRID_MINOR
  6
CONTINUOUS
 62
     8
  5
230
 10
11.4
 20
2.0
 30
0.0
  0
VERTEX
  8
GRID_MINOR
  6
CONTINUOUS
 62
     8
  5
231
 10
11.4
 20
9.0
 30
0.0
  0
SEQEND
  8
0
  5
232
  0
POLYLINE
  8
GRID_MINOR
  6
CONTINUOUS
 62
     8
  5
233
 66
     1
 10
0.0
 20
0.0
 30
0.0
1001
VDEXTRAPARAM
1071
        0
1071
        0
1071
        0
1040
1.0
1000

1000

1001
VD_XPROPERTIES
  0
VERTEX
  8
GRID_MINOR
  6
CONTINUOUS
 62
     8
  5
234
 10
11.5
 20
2.0
 30
0.0
  0
VERTEX
  8
GRID_MINOR
  6
CONTINUOUS
 62
     8
  5
235
 10
11.5
 20
9.0
 30
0.0
  0
SEQEND
  8
0
  5
236
  0
POLYLINE
  8
GRID_MINOR
  6
CONTINUOUS
 62
     8
  5
237
 66
     1
 10
0.0
 20
0.0
 30
0.0
1001
VDEXTRAPARAM
1071
        0
1071
        0
1071
        0
1040
1.0
1000

1000

1001
VD_XPROPERTIES
  0
VERTEX
  8
GRID_MINOR
  6
CONTINUOUS
 62
     8
  5
238
 10
11.6
 20
2.0
 30
0.0
  0
VERTEX
  8
GRID_MINOR
  6
CONTINUOUS
 62
     8
  5
239
 10
11.6
 20
9.0
 30
0.0
  0
SEQEND
  8
0
  5
23A
  0
POLYLINE
  8
GRID_MINOR
  6
CONTINUOUS
 62
     8
  5
23B
 66
     1
 10
0.0
 20
0.0
 30
0.0
1001
VDEXTRAPARAM
1071
        0
1071
        0
1071
        0
1040
1.0
1000

1000

1001
VD_XPROPERTIES
  0
VERTEX
  8
GRID_MINOR
  6
CONTINUOUS
 62
     8
  5
23C
 10
11.7
 20
2.0
 30
0.0
  0
VERTEX
  8
GRID_MINOR
  6
CONTINUOUS
 62
     8
  5
23D
 10
11.7
 20
9.0
 30
0.0
  0
SEQEND
  8
0
  5
23E
  0
POLYLINE
  8
GRID_MINOR
  6
CONTINUOUS
 62
     8
  5
23F
 66
     1
 10
0.0
 20
0.0
 30
0.0
1001
VDEXTRAPARAM
1071
        0
1071
        0
1071
        0
1040
1.0
1000

1000

1001
VD_XPROPERTIES
  0
VERTEX
  8
GRID_MINOR
  6
CONTINUOUS
 62
     8
  5
240
 10
11.8
 20
2.0
 30
0.0
  0
VERTEX
  8
GRID_MINOR
  6
CONTINUOUS
 62
     8
  5
241
 10
11.8
 20
9.0
 30
0.0
  0
SEQEND
  8
0
  5
242
  0
POLYLINE
  8
GRID_MINOR
  6
CONTINUOUS
 62
     8
  5
243
 66
     1
 10
0.0
 20
0.0
 30
0.0
1001
VDEXTRAPARAM
1071
        0
1071
        0
1071
        0
1040
1.0
1000

1000

1001
VD_XPROPERTIES
  0
VERTEX
  8
GRID_MINOR
  6
CONTINUOUS
 62
     8
  5
244
 10
11.9
 20
2.0
 30
0.0
  0
VERTEX
  8
GRID_MINOR
  6
CONTINUOUS
 62
     8
  5
245
 10
11.9
 20
9.0
 30
0.0
  0
SEQEND
  8
0
  5
246
  0
POLYLINE
  8
GRID_MINOR
  6
CONTINUOUS
 62
     8
  5
247
 66
     1
 10
0.0
 20
0.0
 30
0.0
1001
VDEXTRAPARAM
1071
        0
1071
        0
1071
        0
1040
1.0
1000

1000

1001
VD_XPROPERTIES
  0
VERTEX
  8
GRID_MINOR
  6
CONTINUOUS
 62
     8
  5
248
 10
12.1
 20
2.0
 30
0.0
  0
VERTEX
  8
GRID_MINOR
  6
CONTINUOUS
 62
     8
  5
249
 10
12.1
 20
9.0
 30
0.0
  0
SEQEND
  8
0
  5
24A
  0
POLYLINE
  8
GRID_MINOR
  6
CONTINUOUS
 62
     8
  5
24B
 66
     1
 10
0.0
 20
0.0
 30
0.0
1001
VDEXTRAPARAM
1071
        0
1071
        0
1071
        0
1040
1.0
1000

1000

1001
VD_XPROPERTIES
  0
VERTEX
  8
GRID_MINOR
  6
CONTINUOUS
 62
     8
  5
24C
 10
12.2
 20
2.0
 30
0.0
  0
VERTEX
  8
GRID_MINOR
  6
CONTINUOUS
 62
     8
  5
24D
 10
12.2
 20
9.0
 30
0.0
  0
SEQEND
  8
0
  5
24E
  0
POLYLINE
  8
GRID_MINOR
  6
CONTINUOUS
 62
     8
  5
24F
 66
     1
 10
0.0
 20
0.0
 30
0.0
1001
VDEXTRAPARAM
1071
        0
1071
        0
1071
        0
1040
1.0
1000

1000

1001
VD_XPROPERTIES
  0
VERTEX
  8
GRID_MINOR
  6
CONTINUOUS
 62
     8
  5
250
 10
12.3
 20
2.0
 30
0.0
  0
VERTEX
  8
GRID_MINOR
  6
CONTINUOUS
 62
     8
  5
251
 10
12.3
 20
9.0
 30
0.0
  0
SEQEND
  8
0
  5
252
  0
POLYLINE
  8
GRID_MINOR
  6
CONTINUOUS
 62
     8
  5
253
 66
     1
 10
0.0
 20
0.0
 30
0.0
1001
VDEXTRAPARAM
1071
        0
1071
        0
1071
        0
1040
1.0
1000

1000

1001
VD_XPROPERTIES
  0
VERTEX
  8
GRID_MINOR
  6
CONTINUOUS
 62
     8
  5
254
 10
12.4
 20
2.0
 30
0.0
  0
VERTEX
  8
GRID_MINOR
  6
CONTINUOUS
 62
     8
  5
255
 10
12.4
 20
9.0
 30
0.0
  0
SEQEND
  8
0
  5
256
  0
POLYLINE
  8
GRID_MINOR
  6
CONTINUOUS
 62
     8
  5
257
 66
     1
 10
0.0
 20
0.0
 30
0.0
1001
VDEXTRAPARAM
1071
        0
1071
        0
1071
        0
1040
1.0
1000

1000

1001
VD_XPROPERTIES
  0
VERTEX
  8
GRID_MINOR
  6
CONTINUOUS
 62
     8
  5
258
 10
12.5
 20
2.0
 30
0.0
  0
VERTEX
  8
GRID_MINOR
  6
CONTINUOUS
 62
     8
  5
259
 10
12.5
 20
9.0
 30
0.0
  0
SEQEND
  8
0
  5
25A
  0
POLYLINE
  8
GRID_MINOR
  6
CONTINUOUS
 62
     8
  5
25B
 66
     1
 10
0.0
 20
0.0
 30
0.0
1001
VDEXTRAPARAM
1071
        0
1071
        0
1071
        0
1040
1.0
1000

1000

1001
VD_XPROPERTIES
  0
VERTEX
  8
GRID_MINOR
  6
CONTINUOUS
 62
     8
  5
25C
 10
12.6
 20
2.0
 30
0.0
  0
VERTEX
  8
GRID_MINOR
  6
CONTINUOUS
 62
     8
  5
25D
 10
12.6
 20
9.0
 30
0.0
  0
SEQEND
  8
0
  5
25E
  0
POLYLINE
  8
GRID_MINOR
  6
CONTINUOUS
 62
     8
  5
25F
 66
     1
 10
0.0
 20
0.0
 30
0.0
1001
VDEXTRAPARAM
1071
        0
1071
        0
1071
        0
1040
1.0
1000

1000

1001
VD_XPROPERTIES
  0
VERTEX
  8
GRID_MINOR
  6
CONTINUOUS
 62
     8
  5
260
 10
12.7
 20
2.0
 30
0.0
  0
VERTEX
  8
GRID_MINOR
  6
CONTINUOUS
 62
     8
  5
261
 10
12.7
 20
9.0
 30
0.0
  0
SEQEND
  8
0
  5
262
  0
POLYLINE
  8
GRID_MINOR
  6
CONTINUOUS
 62
     8
  5
263
 66
     1
 10
0.0
 20
0.0
 30
0.0
1001
VDEXTRAPARAM
1071
        0
1071
        0
1071
        0
1040
1.0
1000

1000

1001
VD_XPROPERTIES
  0
VERTEX
  8
GRID_MINOR
  6
CONTINUOUS
 62
     8
  5
264
 10
12.8
 20
2.0
 30
0.0
  0
VERTEX
  8
GRID_MINOR
  6
CONTINUOUS
 62
     8
  5
265
 10
12.8
 20
9.0
 30
0.0
  0
SEQEND
  8
0
  5
266
  0
POLYLINE
  8
GRID_MINOR
  6
CONTINUOUS
 62
     8
  5
267
 66
     1
 10
0.0
 20
0.0
 30
0.0
1001
VDEXTRAPARAM
1071
        0
1071
        0
1071
        0
1040
1.0
1000

1000

1001
VD_XPROPERTIES
  0
VERTEX
  8
GRID_MINOR
  6
CONTINUOUS
 62
     8
  5
268
 10
12.9
 20
2.0
 30
0.0
  0
VERTEX
  8
GRID_MINOR
  6
CONTINUOUS
 62
     8
  5
269
 10
12.9
 20
9.0
 30
0.0
  0
SEQEND
  8
0
  5
26A
  0
POLYLINE
  8
GRID_MINOR
  6
CONTINUOUS
 62
     8
  5
26B
 66
     1
 10
0.0
 20
0.0
 30
0.0
1001
VDEXTRAPARAM
1071
        0
1071
        0
1071
        0
1040
1.0
1000

1000

1001
VD_XPROPERTIES
  0
VERTEX
  8
GRID_MINOR
  6
CONTINUOUS
 62
     8
  5
26C
 10
7.6
 20
0.0
 30
0.0
  0
VERTEX
  8
GRID_MINOR
  6
CONTINUOUS
 62
     8
  5
26D
 10
7.6
 20
9.0
 30
0.0
  0
SEQEND
  8
0
  5
26E
  0
POLYLINE
  8
GRID_MINOR
  6
CONTINUOUS
 62
     8
  5
26F
 66
     1
 10
0.0
 20
0.0
 30
0.0
1001
VDEXTRAPARAM
1071
        0
1071
        0
1071
        0
1040
1.0
1000

1000

1001
VD_XPROPERTIES
  0
VERTEX
  8
GRID_MINOR
  6
CONTINUOUS
 62
     8
  5
270
 10
7.7
 20
0.0
 30
0.0
  0
VERTEX
  8
GRID_MINOR
  6
CONTINUOUS
 62
     8
  5
271
 10
7.7
 20
9.0
 30
0.0
  0
SEQEND
  8
0
  5
272
  0
POLYLINE
  8
BORDERLINE
  5
273
 66
     1
 10
0.0
 20
0.0
 30
0.0
1001
VDEXTRAPARAM
1071
        0
1071
        0
1071
        0
1040
1.0
1000

1000

1001
VD_XPROPERTIES
  0
VERTEX
  8
BORDERLINE
  5
274
 10
13.5
 20
-0.35
 30
0.0
  0
VERTEX
  8
BORDERLINE
  5
275
 10
14.5
 20
-0.35
 30
0.0
  0
SEQEND
  8
0
  5
276
  0
POLYLINE
  8
GRID_MAJOR
  5
277
 66
     1
 10
0.0
 20
0.0
 30
0.0
1001
VDEXTRAPARAM
1071
        0
1071
        0
1071
        0
1040
1.0
1000

1000

1001
VD_XPROPERTIES
  0
VERTEX
  8
GRID_MAJOR
  5
278
 10
0.0
 20
0.0
 30
0.0
  0
VERTEX
  8
GRID_MAJOR
  5
279
 10
13.0
 20
0.0
 30
0.0
  0
SEQEND
  8
0
  5
27A
  0
LINE
  8
GRID_MAJOR
  5
27B
 10
0.0
 20
1.0
 30
0.0
 11
10.0
 21
1.0
 31
0.0
1001
VD_XPROPERTIES
  0
POLYLINE
  8
GRID_MINOR
  6
CONTINUOUS
 62
     8
  5
27C
 66
     1
 10
0.0
 20
0.0
 30
0.0
1001
VDEXTRAPARAM
1071
        0
1071
        0
1071
        0
1040
1.0
1000

1000

1001
VD_XPROPERTIES
  0
VERTEX
  8
GRID_MINOR
  6
CONTINUOUS
 62
     8
  5
27D
 10
0.0
 20
0.1
 30
0.0
  0
VERTEX
  8
GRID_MINOR
  6
CONTINUOUS
 62
     8
  5
27E
 10
10.0
 20
0.1
 30
0.0
  0
SEQEND
  8
0
  5
27F
  0
POLYLINE
  8
GRID_MINOR
  6
CONTINUOUS
 62
     8
  5
280
 66
     1
 10
0.0
 20
0.0
 30
0.0
1001
VDEXTRAPARAM
1071
        0
1071
        0
1071
        0
1040
1.0
1000

1000

1001
VD_XPROPERTIES
  0
VERTEX
  8
GRID_MINOR
  6
CONTINUOUS
 62
     8
  5
281
 10
0.0
 20
0.2
 30
0.0
  0
VERTEX
  8
GRID_MINOR
  6
CONTINUOUS
 62
     8
  5
282
 10
10.0
 20
0.2
 30
0.0
  0
SEQEND
  8
0
  5
283
  0
POLYLINE
  8
GRID_MINOR
  6
CONTINUOUS
 62
     8
  5
284
 66
     1
 10
0.0
 20
0.0
 30
0.0
1001
VDEXTRAPARAM
1071
        0
1071
        0
1071
        0
1040
1.0
1000

1000

1001
VD_XPROPERTIES
  0
VERTEX
  8
GRID_MINOR
  6
CONTINUOUS
 62
     8
  5
285
 10
0.0
 20
0.3
 30
0.0
  0
VERTEX
  8
GRID_MINOR
  6
CONTINUOUS
 62
     8
  5
286
 10
10.0
 20
0.3
 30
0.0
  0
SEQEND
  8
0
  5
287
  0
POLYLINE
  8
GRID_MINOR
  6
CONTINUOUS
 62
     8
  5
288
 66
     1
 10
0.0
 20
0.0
 30
0.0
1001
VDEXTRAPARAM
1071
        0
1071
        0
1071
        0
1040
1.0
1000

1000

1001
VD_XPROPERTIES
  0
VERTEX
  8
GRID_MINOR
  6
CONTINUOUS
 62
     8
  5
289
 10
0.0
 20
0.4
 30
0.0
  0
VERTEX
  8
GRID_MINOR
  6
CONTINUOUS
 62
     8
  5
28A
 10
10.0
 20
0.4
 30
0.0
  0
SEQEND
  8
0
  5
28B
  0
POLYLINE
  8
GRID_MINOR
  6
CONTINUOUS
 62
     8
  5
28C
 66
     1
 10
0.0
 20
0.0
 30
0.0
1001
VDEXTRAPARAM
1071
        0
1071
        0
1071
        0
1040
1.0
1000

1000

1001
VD_XPROPERTIES
  0
VERTEX
  8
GRID_MINOR
  6
CONTINUOUS
 62
     8
  5
28D
 10
0.0
 20
0.5
 30
0.0
  0
VERTEX
  8
GRID_MINOR
  6
CONTINUOUS
 62
     8
  5
28E
 10
10.0
 20
0.5
 30
0.0
  0
SEQEND
  8
0
  5
28F
  0
POLYLINE
  8
GRID_MINOR
  6
CONTINUOUS
 62
     8
  5
290
 66
     1
 10
0.0
 20
0.0
 30
0.0
1001
VDEXTRAPARAM
1071
        0
1071
        0
1071
        0
1040
1.0
1000

1000

1001
VD_XPROPERTIES
  0
VERTEX
  8
GRID_MINOR
  6
CONTINUOUS
 62
     8
  5
291
 10
0.0
 20
0.6
 30
0.0
  0
VERTEX
  8
GRID_MINOR
  6
CONTINUOUS
 62
     8
  5
292
 10
10.0
 20
0.6
 30
0.0
  0
SEQEND
  8
0
  5
293
  0
POLYLINE
  8
GRID_MINOR
  6
CONTINUOUS
 62
     8
  5
294
 66
     1
 10
0.0
 20
0.0
 30
0.0
1001
VDEXTRAPARAM
1071
        0
1071
        0
1071
        0
1040
1.0
1000

1000

1001
VD_XPROPERTIES
  0
VERTEX
  8
GRID_MINOR
  6
CONTINUOUS
 62
     8
  5
295
 10
0.0
 20
0.7
 30
0.0
  0
VERTEX
  8
GRID_MINOR
  6
CONTINUOUS
 62
     8
  5
296
 10
10.0
 20
0.7
 30
0.0
  0
SEQEND
  8
0
  5
297
  0
POLYLINE
  8
GRID_MINOR
  6
CONTINUOUS
 62
     8
  5
298
 66
     1
 10
0.0
 20
0.0
 30
0.0
1001
VDEXTRAPARAM
1071
        0
1071
        0
1071
        0
1040
1.0
1000

1000

1001
VD_XPROPERTIES
  0
VERTEX
  8
GRID_MINOR
  6
CONTINUOUS
 62
     8
  5
299
 10
0.0
 20
0.8
 30
0.0
  0
VERTEX
  8
GRID_MINOR
  6
CONTINUOUS
 62
     8
  5
29A
 10
10.0
 20
0.8
 30
0.0
  0
SEQEND
  8
0
  5
29B
  0
POLYLINE
  8
GRID_MINOR
  6
CONTINUOUS
 62
     8
  5
29C
 66
     1
 10
0.0
 20
0.0
 30
0.0
1001
VDEXTRAPARAM
1071
        0
1071
        0
1071
        0
1040
1.0
1000

1000

1001
VD_XPROPERTIES
  0
VERTEX
  8
GRID_MINOR
  6
CONTINUOUS
 62
     8
  5
29D
 10
0.0
 20
0.9
 30
0.0
  0
VERTEX
  8
GRID_MINOR
  6
CONTINUOUS
 62
     8
  5
29E
 10
10.0
 20
0.9
 30
0.0
  0
SEQEND
  8
0
  5
29F
  0
POLYLINE
  8
GRID_MINOR
  6
CONTINUOUS
 62
     8
  5
2A0
 66
     1
 10
0.0
 20
0.0
 30
0.0
1001
VDEXTRAPARAM
1071
        0
1071
        0
1071
        0
1040
1.0
1000

1000

1001
VD_XPROPERTIES
  0
VERTEX
  8
GRID_MINOR
  6
CONTINUOUS
 62
     8
  5
2A1
 10
0.0
 20
1.1
 30
0.0
  0
VERTEX
  8
GRID_MINOR
  6
CONTINUOUS
 62
     8
  5
2A2
 10
10.0
 20
1.1
 30
0.0
  0
SEQEND
  8
0
  5
2A3
  0
POLYLINE
  8
BORDERLINE
  5
2A4
 66
     1
 10
0.0
 20
0.0
 30
0.0
1001
VDEXTRAPARAM
1071
        0
1071
        0
1071
        0
1040
1.0
1000

1000

1001
VD_XPROPERTIES
  0
VERTEX
  8
BORDERLINE
  5
2A5
 10
13.5
 20
3.4
 30
0.0
  0
VERTEX
  8
BORDERLINE
  5
2A6
 10
14.5
 20
3.4
 30
0.0
  0
SEQEND
  8
0
  5
2A7
  0
POLYLINE
  8
GRID_MAJOR
  5
2A8
 66
     1
 10
0.0
 20
0.0
 30
0.0
1001
VDEXTRAPARAM
1071
        0
1071
        0
1071
        0
1040
1.0
1000

1000

1001
VD_XPROPERTIES
  0
VERTEX
  8
GRID_MAJOR
  5
2A9
 10
0.0
 20
2.0
 30
0.0
  0
VERTEX
  8
GRID_MAJOR
  5
2AA
 10
13.0
 20
2.0
 30
0.0
  0
SEQEND
  8
0
  5
2AB
  0
POLYLINE
  8
GRID_MAJOR
  5
2AC
 66
     1
 10
0.0
 20
0.0
 30
0.0
1001
VDEXTRAPARAM
1071
        0
1071
        0
1071
        0
1040
1.0
1000

1000

1001
VD_XPROPERTIES
  0
VERTEX
  8
GRID_MAJOR
  5
2AD
 10
0.0
 20
3.0
 30
0.0
  0
VERTEX
  8
GRID_MAJOR
  5
2AE
 10
13.0
 20
3.0
 30
0.0
  0
SEQEND
  8
0
  5
2AF
  0
POLYLINE
  8
GRID_MAJOR
  5
2B0
 66
     1
 10
0.0
 20
0.0
 30
0.0
1001
VDEXTRAPARAM
1071
        0
1071
        0
1071
        0
1040
1.0
1000

1000

1001
VD_XPROPERTIES
  0
VERTEX
  8
GRID_MAJOR
  5
2B1
 10
0.0
 20
4.0
 30
0.0
  0
VERTEX
  8
GRID_MAJOR
  5
2B2
 10
13.0
 20
4.0
 30
0.0
  0
SEQEND
  8
0
  5
2B3
  0
POLYLINE
  8
GRID_MINOR
  6
CONTINUOUS
 62
     8
  5
2B4
 66
     1
 10
0.0
 20
0.0
 30
0.0
1001
VDEXTRAPARAM
1071
        0
1071
        0
1071
        0
1040
1.0
1000

1000

1001
VD_XPROPERTIES
  0
VERTEX
  8
GRID_MINOR
  6
CONTINUOUS
 62
     8
  5
2B5
 10
0.0
 20
1.2
 30
0.0
  0
VERTEX
  8
GRID_MINOR
  6
CONTINUOUS
 62
     8
  5
2B6
 10
10.0
 20
1.2
 30
0.0
  0
SEQEND
  8
0
  5
2B7
  0
POLYLINE
  8
GRID_MINOR
  6
CONTINUOUS
 62
     8
  5
2B8
 66
     1
 10
0.0
 20
0.0
 30
0.0
1001
VDEXTRAPARAM
1071
        0
1071
        0
1071
        0
1040
1.0
1000

1000

1001
VD_XPROPERTIES
  0
VERTEX
  8
GRID_MINOR
  6
CONTINUOUS
 62
     8
  5
2B9
 10
0.0
 20
1.3
 30
0.0
  0
VERTEX
  8
GRID_MINOR
  6
CONTINUOUS
 62
     8
  5
2BA
 10
10.0
 20
1.3
 30
0.0
  0
SEQEND
  8
0
  5
2BB
  0
POLYLINE
  8
GRID_MINOR
  6
CONTINUOUS
 62
     8
  5
2BC
 66
     1
 10
0.0
 20
0.0
 30
0.0
1001
VDEXTRAPARAM
1071
        0
1071
        0
1071
        0
1040
1.0
1000

1000

1001
VD_XPROPERTIES
  0
VERTEX
  8
GRID_MINOR
  6
CONTINUOUS
 62
     8
  5
2BD
 10
0.0
 20
1.4
 30
0.0
  0
VERTEX
  8
GRID_MINOR
  6
CONTINUOUS
 62
     8
  5
2BE
 10
10.0
 20
1.4
 30
0.0
  0
SEQEND
  8
0
  5
2BF
  0
POLYLINE
  8
GRID_MINOR
  6
CONTINUOUS
 62
     8
  5
2C0
 66
     1
 10
0.0
 20
0.0
 30
0.0
1001
VDEXTRAPARAM
1071
        0
1071
        0
1071
        0
1040
1.0
1000

1000

1001
VD_XPROPERTIES
  0
VERTEX
  8
GRID_MINOR
  6
CONTINUOUS
 62
     8
  5
2C1
 10
0.0
 20
1.5
 30
0.0
  0
VERTEX
  8
GRID_MINOR
  6
CONTINUOUS
 62
     8
  5
2C2
 10
10.0
 20
1.5
 30
0.0
  0
SEQEND
  8
0
  5
2C3
  0
POLYLINE
  8
GRID_MINOR
  6
CONTINUOUS
 62
     8
  5
2C4
 66
     1
 10
0.0
 20
0.0
 30
0.0
1001
VDEXTRAPARAM
1071
        0
1071
        0
1071
        0
1040
1.0
1000

1000

1001
VD_XPROPERTIES
  0
VERTEX
  8
GRID_MINOR
  6
CONTINUOUS
 62
     8
  5
2C5
 10
0.0
 20
1.6
 30
0.0
  0
VERTEX
  8
GRID_MINOR
  6
CONTINUOUS
 62
     8
  5
2C6
 10
10.0
 20
1.6
 30
0.0
  0
SEQEND
  8
0
  5
2C7
  0
POLYLINE
  8
GRID_MINOR
  6
CONTINUOUS
 62
     8
  5
2C8
 66
     1
 10
0.0
 20
0.0
 30
0.0
1001
VDEXTRAPARAM
1071
        0
1071
        0
1071
        0
1040
1.0
1000

1000

1001
VD_XPROPERTIES
  0
VERTEX
  8
GRID_MINOR
  6
CONTINUOUS
 62
     8
  5
2C9
 10
0.0
 20
1.7
 30
0.0
  0
VERTEX
  8
GRID_MINOR
  6
CONTINUOUS
 62
     8
  5
2CA
 10
10.0
 20
1.7
 30
0.0
  0
SEQEND
  8
0
  5
2CB
  0
POLYLINE
  8
GRID_MINOR
  6
CONTINUOUS
 62
     8
  5
2CC
 66
     1
 10
0.0
 20
0.0
 30
0.0
1001
VDEXTRAPARAM
1071
        0
1071
        0
1071
        0
1040
1.0
1000

1000

1001
VD_XPROPERTIES
  0
VERTEX
  8
GRID_MINOR
  6
CONTINUOUS
 62
     8
  5
2CD
 10
0.0
 20
1.8
 30
0.0
  0
VERTEX
  8
GRID_MINOR
  6
CONTINUOUS
 62
     8
  5
2CE
 10
10.0
 20
1.8
 30
0.0
  0
SEQEND
  8
0
  5
2CF
  0
POLYLINE
  8
GRID_MINOR
  6
CONTINUOUS
 62
     8
  5
2D0
 66
     1
 10
0.0
 20
0.0
 30
0.0
1001
VDEXTRAPARAM
1071
        0
1071
        0
1071
        0
1040
1.0
1000

1000

1001
VD_XPROPERTIES
  0
VERTEX
  8
GRID_MINOR
  6
CONTINUOUS
 62
     8
  5
2D1
 10
0.0
 20
1.9
 30
0.0
  0
VERTEX
  8
GRID_MINOR
  6
CONTINUOUS
 62
     8
  5
2D2
 10
10.0
 20
1.9
 30
0.0
  0
SEQEND
  8
0
  5
2D3
  0
POLYLINE
  8
GRID_MINOR
  6
CONTINUOUS
 62
     8
  5
2D4
 66
     1
 10
0.0
 20
0.0
 30
0.0
1001
VDEXTRAPARAM
1071
        0
1071
        0
1071
        0
1040
1.0
1000

1000

1001
VD_XPROPERTIES
  0
VERTEX
  8
GRID_MINOR
  6
CONTINUOUS
 62
     8
  5
2D5
 10
0.0
 20
2.1
 30
0.0
  0
VERTEX
  8
GRID_MINOR
  6
CONTINUOUS
 62
     8
  5
2D6
 10
13.0
 20
2.1
 30
0.0
  0
SEQEND
  8
0
  5
2D7
  0
POLYLINE
  8
GRID_MINOR
  6
CONTINUOUS
 62
     8
  5
2D8
 66
     1
 10
0.0
 20
0.0
 30
0.0
1001
VDEXTRAPARAM
1071
        0
1071
        0
1071
        0
1040
1.0
1000

1000

1001
VD_XPROPERTIES
  0
VERTEX
  8
GRID_MINOR
  6
CONTINUOUS
 62
     8
  5
2D9
 10
0.0
 20
2.2
 30
0.0
  0
VERTEX
  8
GRID_MINOR
  6
CONTINUOUS
 62
     8
  5
2DA
 10
13.0
 20
2.2
 30
0.0
  0
SEQEND
  8
0
  5
2DB
  0
POLYLINE
  8
GRID_MINOR
  6
CONTINUOUS
 62
     8
  5
2DC
 66
     1
 10
0.0
 20
0.0
 30
0.0
1001
VDEXTRAPARAM
1071
        0
1071
        0
1071
        0
1040
1.0
1000

1000

1001
VD_XPROPERTIES
  0
VERTEX
  8
GRID_MINOR
  6
CONTINUOUS
 62
     8
  5
2DD
 10
0.0
 20
2.3
 30
0.0
  0
VERTEX
  8
GRID_MINOR
  6
CONTINUOUS
 62
     8
  5
2DE
 10
13.0
 20
2.3
 30
0.0
  0
SEQEND
  8
0
  5
2DF
  0
POLYLINE
  8
GRID_MINOR
  6
CONTINUOUS
 62
     8
  5
2E0
 66
     1
 10
0.0
 20
0.0
 30
0.0
1001
VDEXTRAPARAM
1071
        0
1071
        0
1071
        0
1040
1.0
1000

1000

1001
VD_XPROPERTIES
  0
VERTEX
  8
GRID_MINOR
  6
CONTINUOUS
 62
     8
  5
2E1
 10
0.0
 20
2.4
 30
0.0
  0
VERTEX
  8
GRID_MINOR
  6
CONTINUOUS
 62
     8
  5
2E2
 10
13.0
 20
2.4
 30
0.0
  0
SEQEND
  8
0
  5
2E3
  0
POLYLINE
  8
GRID_MINOR
  6
CONTINUOUS
 62
     8
  5
2E4
 66
     1
 10
0.0
 20
0.0
 30
0.0
1001
VDEXTRAPARAM
1071
        0
1071
        0
1071
        0
1040
1.0
1000

1000

1001
VD_XPROPERTIES
  0
VERTEX
  8
GRID_MINOR
  6
CONTINUOUS
 62
     8
  5
2E5
 10
0.0
 20
2.5
 30
0.0
  0
VERTEX
  8
GRID_MINOR
  6
CONTINUOUS
 62
     8
  5
2E6
 10
13.0
 20
2.5
 30
0.0
  0
SEQEND
  8
0
  5
2E7
  0
POLYLINE
  8
GRID_MINOR
  6
CONTINUOUS
 62
     8
  5
2E8
 66
     1
 10
0.0
 20
0.0
 30
0.0
1001
VDEXTRAPARAM
1071
        0
1071
        0
1071
        0
1040
1.0
1000

1000

1001
VD_XPROPERTIES
  0
VERTEX
  8
GRID_MINOR
  6
CONTINUOUS
 62
     8
  5
2E9
 10
0.0
 20
2.6
 30
0.0
  0
VERTEX
  8
GRID_MINOR
  6
CONTINUOUS
 62
     8
  5
2EA
 10
13.0
 20
2.6
 30
0.0
  0
SEQEND
  8
0
  5
2EB
  0
POLYLINE
  8
GRID_MINOR
  6
CONTINUOUS
 62
     8
  5
2EC
 66
     1
 10
0.0
 20
0.0
 30
0.0
1001
VDEXTRAPARAM
1071
        0
1071
        0
1071
        0
1040
1.0
1000

1000

1001
VD_XPROPERTIES
  0
VERTEX
  8
GRID_MINOR
  6
CONTINUOUS
 62
     8
  5
2ED
 10
0.0
 20
2.7
 30
0.0
  0
VERTEX
  8
GRID_MINOR
  6
CONTINUOUS
 62
     8
  5
2EE
 10
13.0
 20
2.7
 30
0.0
  0
SEQEND
  8
0
  5
2EF
  0
POLYLINE
  8
GRID_MINOR
  6
CONTINUOUS
 62
     8
  5
2F0
 66
     1
 10
0.0
 20
0.0
 30
0.0
1001
VDEXTRAPARAM
1071
        0
1071
        0
1071
        0
1040
1.0
1000

1000

1001
VD_XPROPERTIES
  0
VERTEX
  8
GRID_MINOR
  6
CONTINUOUS
 62
     8
  5
2F1
 10
0.0
 20
2.8
 30
0.0
  0
VERTEX
  8
GRID_MINOR
  6
CONTINUOUS
 62
     8
  5
2F2
 10
13.0
 20
2.8
 30
0.0
  0
SEQEND
  8
0
  5
2F3
  0
POLYLINE
  8
GRID_MINOR
  6
CONTINUOUS
 62
     8
  5
2F4
 66
     1
 10
0.0
 20
0.0
 30
0.0
1001
VDEXTRAPARAM
1071
        0
1071
        0
1071
        0
1040
1.0
1000

1000

1001
VD_XPROPERTIES
  0
VERTEX
  8
GRID_MINOR
  6
CONTINUOUS
 62
     8
  5
2F5
 10
0.0
 20
2.9
 30
0.0
  0
VERTEX
  8
GRID_MINOR
  6
CONTINUOUS
 62
     8
  5
2F6
 10
13.0
 20
2.9
 30
0.0
  0
SEQEND
  8
0
  5
2F7
  0
POLYLINE
  8
GRID_MINOR
  6
CONTINUOUS
 62
     8
  5
2F8
 66
     1
 10
0.0
 20
0.0
 30
0.0
1001
VDEXTRAPARAM
1071
        0
1071
        0
1071
        0
1040
1.0
1000

1000

1001
VD_XPROPERTIES
  0
VERTEX
  8
GRID_MINOR
  6
CONTINUOUS
 62
     8
  5
2F9
 10
0.0
 20
3.1
 30
0.0
  0
VERTEX
  8
GRID_MINOR
  6
CONTINUOUS
 62
     8
  5
2FA
 10
13.0
 20
3.1
 30
0.0
  0
SEQEND
  8
0
  5
2FB
  0
POLYLINE
  8
GRID_MINOR
  6
CONTINUOUS
 62
     8
  5
2FC
 66
     1
 10
0.0
 20
0.0
 30
0.0
1001
VDEXTRAPARAM
1071
        0
1071
        0
1071
        0
1040
1.0
1000

1000

1001
VD_XPROPERTIES
  0
VERTEX
  8
GRID_MINOR
  6
CONTINUOUS
 62
     8
  5
2FD
 10
0.0
 20
3.2
 30
0.0
  0
VERTEX
  8
GRID_MINOR
  6
CONTINUOUS
 62
     8
  5
2FE
 10
13.0
 20
3.2
 30
0.0
  0
SEQEND
  8
0
  5
2FF
  0
POLYLINE
  8
GRID_MINOR
  6
CONTINUOUS
 62
     8
  5
300
 66
     1
 10
0.0
 20
0.0
 30
0.0
1001
VDEXTRAPARAM
1071
        0
1071
        0
1071
        0
1040
1.0
1000

1000

1001
VD_XPROPERTIES
  0
VERTEX
  8
GRID_MINOR
  6
CONTINUOUS
 62
     8
  5
301
 10
0.0
 20
3.3
 30
0.0
  0
VERTEX
  8
GRID_MINOR
  6
CONTINUOUS
 62
     8
  5
302
 10
13.0
 20
3.3
 30
0.0
  0
SEQEND
  8
0
  5
303
  0
POLYLINE
  8
GRID_MINOR
  6
CONTINUOUS
 62
     8
  5
304
 66
     1
 10
0.0
 20
0.0
 30
0.0
1001
VDEXTRAPARAM
1071
        0
1071
        0
1071
        0
1040
1.0
1000

1000

1001
VD_XPROPERTIES
  0
VERTEX
  8
GRID_MINOR
  6
CONTINUOUS
 62
     8
  5
305
 10
0.0
 20
3.4
 30
0.0
  0
VERTEX
  8
GRID_MINOR
  6
CONTINUOUS
 62
     8
  5
306
 10
13.0
 20
3.4
 30
0.0
  0
SEQEND
  8
0
  5
307
  0
POLYLINE
  8
GRID_MINOR
  6
CONTINUOUS
 62
     8
  5
308
 66
     1
 10
0.0
 20
0.0
 30
0.0
1001
VDEXTRAPARAM
1071
        0
1071
        0
1071
        0
1040
1.0
1000

1000

1001
VD_XPROPERTIES
  0
VERTEX
  8
GRID_MINOR
  6
CONTINUOUS
 62
     8
  5
309
 10
0.0
 20
3.5
 30
0.0
  0
VERTEX
  8
GRID_MINOR
  6
CONTINUOUS
 62
     8
  5
30A
 10
13.0
 20
3.5
 30
0.0
  0
SEQEND
  8
0
  5
30B
  0
POLYLINE
  8
GRID_MINOR
  6
CONTINUOUS
 62
     8
  5
30C
 66
     1
 10
0.0
 20
0.0
 30
0.0
1001
VDEXTRAPARAM
1071
        0
1071
        0
1071
        0
1040
1.0
1000

1000

1001
VD_XPROPERTIES
  0
VERTEX
  8
GRID_MINOR
  6
CONTINUOUS
 62
     8
  5
30D
 10
0.0
 20
3.6
 30
0.0
  0
VERTEX
  8
GRID_MINOR
  6
CONTINUOUS
 62
     8
  5
30E
 10
13.0
 20
3.6
 30
0.0
  0
SEQEND
  8
0
  5
30F
  0
POLYLINE
  8
GRID_MINOR
  6
CONTINUOUS
 62
     8
  5
310
 66
     1
 10
0.0
 20
0.0
 30
0.0
1001
VDEXTRAPARAM
1071
        0
1071
        0
1071
        0
1040
1.0
1000

1000

1001
VD_XPROPERTIES
  0
VERTEX
  8
GRID_MINOR
  6
CONTINUOUS
 62
     8
  5
311
 10
0.0
 20
3.7
 30
0.0
  0
VERTEX
  8
GRID_MINOR
  6
CONTINUOUS
 62
     8
  5
312
 10
13.0
 20
3.7
 30
0.0
  0
SEQEND
  8
0
  5
313
  0
POLYLINE
  8
GRID_MINOR
  6
CONTINUOUS
 62
     8
  5
314
 66
     1
 10
0.0
 20
0.0
 30
0.0
1001
VDEXTRAPARAM
1071
        0
1071
        0
1071
        0
1040
1.0
1000

1000

1001
VD_XPROPERTIES
  0
VERTEX
  8
GRID_MINOR
  6
CONTINUOUS
 62
     8
  5
315
 10
0.0
 20
3.8
 30
0.0
  0
VERTEX
  8
GRID_MINOR
  6
CONTINUOUS
 62
     8
  5
316
 10
13.0
 20
3.8
 30
0.0
  0
SEQEND
  8
0
  5
317
  0
POLYLINE
  8
GRID_MINOR
  6
CONTINUOUS
 62
     8
  5
318
 66
     1
 10
0.0
 20
0.0
 30
0.0
1001
VDEXTRAPARAM
1071
        0
1071
        0
1071
        0
1040
1.0
1000

1000

1001
VD_XPROPERTIES
  0
VERTEX
  8
GRID_MINOR
  6
CONTINUOUS
 62
     8
  5
319
 10
0.0
 20
3.9
 30
0.0
  0
VERTEX
  8
GRID_MINOR
  6
CONTINUOUS
 62
     8
  5
31A
 10
13.0
 20
3.9
 30
0.0
  0
SEQEND
  8
0
  5
31B
  0
POLYLINE
  8
GRID_MINOR
  6
CONTINUOUS
 62
     8
  5
31C
 66
     1
 10
0.0
 20
0.0
 30
0.0
1001
VDEXTRAPARAM
1071
        0
1071
        0
1071
        0
1040
1.0
1000

1000

1001
VD_XPROPERTIES
  0
VERTEX
  8
GRID_MINOR
  6
CONTINUOUS
 62
     8
  5
31D
 10
0.0
 20
4.1
 30
0.0
  0
VERTEX
  8
GRID_MINOR
  6
CONTINUOUS
 62
     8
  5
31E
 10
13.0
 20
4.1
 30
0.0
  0
SEQEND
  8
0
  5
31F
  0
POLYLINE
  8
GRID_MINOR
  6
CONTINUOUS
 62
     8
  5
320
 66
     1
 10
0.0
 20
0.0
 30
0.0
1001
VDEXTRAPARAM
1071
        0
1071
        0
1071
        0
1040
1.0
1000

1000

1001
VD_XPROPERTIES
  0
VERTEX
  8
GRID_MINOR
  6
CONTINUOUS
 62
     8
  5
321
 10
0.0
 20
4.2
 30
0.0
  0
VERTEX
  8
GRID_MINOR
  6
CONTINUOUS
 62
     8
  5
322
 10
13.0
 20
4.2
 30
0.0
  0
SEQEND
  8
0
  5
323
  0
POLYLINE
  8
GRID_MAJOR
  5
324
 66
     1
 10
0.0
 20
0.0
 30
0.0
1001
VDEXTRAPARAM
1071
        0
1071
        0
1071
        0
1040
1.0
1000

1000

1001
VD_XPROPERTIES
  0
VERTEX
  8
GRID_MAJOR
  5
325
 10
0.0
 20
5.0
 30
0.0
  0
VERTEX
  8
GRID_MAJOR
  5
326
 10
13.0
 20
5.0
 30
0.0
  0
SEQEND
  8
0
  5
327
  0
POLYLINE
  8
GRID_MAJOR
  5
328
 66
     1
 10
0.0
 20
0.0
 30
0.0
1001
VDEXTRAPARAM
1071
        0
1071
        0
1071
        0
1040
1.0
1000

1000

1001
VD_XPROPERTIES
  0
VERTEX
  8
GRID_MAJOR
  5
329
 10
0.0
 20
6.0
 30
0.0
  0
VERTEX
  8
GRID_MAJOR
  5
32A
 10
13.0
 20
6.0
 30
0.0
  0
SEQEND
  8
0
  5
32B
  0
POLYLINE
  8
GRID_MAJOR
  5
32C
 66
     1
 10
0.0
 20
0.0
 30
0.0
1001
VDEXTRAPARAM
1071
        0
1071
        0
1071
        0
1040
1.0
1000

1000

1001
VD_XPROPERTIES
  0
VERTEX
  8
GRID_MAJOR
  5
32D
 10
0.0
 20
7.0
 30
0.0
  0
VERTEX
  8
GRID_MAJOR
  5
32E
 10
13.0
 20
7.0
 30
0.0
  0
SEQEND
  8
0
  5
32F
  0
POLYLINE
  8
GRID_MINOR
  6
CONTINUOUS
 62
     8
  5
330
 66
     1
 10
0.0
 20
0.0
 30
0.0
1001
VDEXTRAPARAM
1071
        0
1071
        0
1071
        0
1040
1.0
1000

1000

1001
VD_XPROPERTIES
  0
VERTEX
  8
GRID_MINOR
  6
CONTINUOUS
 62
     8
  5
331
 10
0.0
 20
4.3
 30
0.0
  0
VERTEX
  8
GRID_MINOR
  6
CONTINUOUS
 62
     8
  5
332
 10
13.0
 20
4.3
 30
0.0
  0
SEQEND
  8
0
  5
333
  0
POLYLINE
  8
GRID_MINOR
  6
CONTINUOUS
 62
     8
  5
334
 66
     1
 10
0.0
 20
0.0
 30
0.0
1001
VDEXTRAPARAM
1071
        0
1071
        0
1071
        0
1040
1.0
1000

1000

1001
VD_XPROPERTIES
  0
VERTEX
  8
GRID_MINOR
  6
CONTINUOUS
 62
     8
  5
335
 10
0.0
 20
4.4
 30
0.0
  0
VERTEX
  8
GRID_MINOR
  6
CONTINUOUS
 62
     8
  5
336
 10
13.0
 20
4.4
 30
0.0
  0
SEQEND
  8
0
  5
337
  0
POLYLINE
  8
GRID_MINOR
  6
CONTINUOUS
 62
     8
  5
338
 66
     1
 10
0.0
 20
0.0
 30
0.0
1001
VDEXTRAPARAM
1071
        0
1071
        0
1071
        0
1040
1.0
1000

1000

1001
VD_XPROPERTIES
  0
VERTEX
  8
GRID_MINOR
  6
CONTINUOUS
 62
     8
  5
339
 10
0.0
 20
4.5
 30
0.0
  0
VERTEX
  8
GRID_MINOR
  6
CONTINUOUS
 62
     8
  5
33A
 10
13.0
 20
4.5
 30
0.0
  0
SEQEND
  8
0
  5
33B
  0
POLYLINE
  8
GRID_MINOR
  6
CONTINUOUS
 62
     8
  5
33C
 66
     1
 10
0.0
 20
0.0
 30
0.0
1001
VDEXTRAPARAM
1071
        0
1071
        0
1071
        0
1040
1.0
1000

1000

1001
VD_XPROPERTIES
  0
VERTEX
  8
GRID_MINOR
  6
CONTINUOUS
 62
     8
  5
33D
 10
0.0
 20
4.6
 30
0.0
  0
VERTEX
  8
GRID_MINOR
  6
CONTINUOUS
 62
     8
  5
33E
 10
13.0
 20
4.6
 30
0.0
  0
SEQEND
  8
0
  5
33F
  0
POLYLINE
  8
GRID_MINOR
  6
CONTINUOUS
 62
     8
  5
340
 66
     1
 10
0.0
 20
0.0
 30
0.0
1001
VDEXTRAPARAM
1071
        0
1071
        0
1071
        0
1040
1.0
1000

1000

1001
VD_XPROPERTIES
  0
VERTEX
  8
GRID_MINOR
  6
CONTINUOUS
 62
     8
  5
341
 10
0.0
 20
4.7
 30
0.0
  0
VERTEX
  8
GRID_MINOR
  6
CONTINUOUS
 62
     8
  5
342
 10
13.0
 20
4.7
 30
0.0
  0
SEQEND
  8
0
  5
343
  0
POLYLINE
  8
GRID_MINOR
  6
CONTINUOUS
 62
     8
  5
344
 66
     1
 10
0.0
 20
0.0
 30
0.0
1001
VDEXTRAPARAM
1071
        0
1071
        0
1071
        0
1040
1.0
1000

1000

1001
VD_XPROPERTIES
  0
VERTEX
  8
GRID_MINOR
  6
CONTINUOUS
 62
     8
  5
345
 10
0.0
 20
4.8
 30
0.0
  0
VERTEX
  8
GRID_MINOR
  6
CONTINUOUS
 62
     8
  5
346
 10
13.0
 20
4.8
 30
0.0
  0
SEQEND
  8
0
  5
347
  0
POLYLINE
  8
GRID_MINOR
  6
CONTINUOUS
 62
     8
  5
348
 66
     1
 10
0.0
 20
0.0
 30
0.0
1001
VDEXTRAPARAM
1071
        0
1071
        0
1071
        0
1040
1.0
1000

1000

1001
VD_XPROPERTIES
  0
VERTEX
  8
GRID_MINOR
  6
CONTINUOUS
 62
     8
  5
349
 10
0.0
 20
4.9
 30
0.0
  0
VERTEX
  8
GRID_MINOR
  6
CONTINUOUS
 62
     8
  5
34A
 10
13.0
 20
4.9
 30
0.0
  0
SEQEND
  8
0
  5
34B
  0
POLYLINE
  8
GRID_MINOR
  6
CONTINUOUS
 62
     8
  5
34C
 66
     1
 10
0.0
 20
0.0
 30
0.0
1001
VDEXTRAPARAM
1071
        0
1071
        0
1071
        0
1040
1.0
1000

1000

1001
VD_XPROPERTIES
  0
VERTEX
  8
GRID_MINOR
  6
CONTINUOUS
 62
     8
  5
34D
 10
0.0
 20
5.1
 30
0.0
  0
VERTEX
  8
GRID_MINOR
  6
CONTINUOUS
 62
     8
  5
34E
 10
13.0
 20
5.1
 30
0.0
  0
SEQEND
  8
0
  5
34F
  0
POLYLINE
  8
GRID_MINOR
  6
CONTINUOUS
 62
     8
  5
350
 66
     1
 10
0.0
 20
0.0
 30
0.0
1001
VDEXTRAPARAM
1071
        0
1071
        0
1071
        0
1040
1.0
1000

1000

1001
VD_XPROPERTIES
  0
VERTEX
  8
GRID_MINOR
  6
CONTINUOUS
 62
     8
  5
351
 10
0.0
 20
5.2
 30
0.0
  0
VERTEX
  8
GRID_MINOR
  6
CONTINUOUS
 62
     8
  5
352
 10
13.0
 20
5.2
 30
0.0
  0
SEQEND
  8
0
  5
353
  0
POLYLINE
  8
GRID_MINOR
  6
CONTINUOUS
 62
     8
  5
354
 66
     1
 10
0.0
 20
0.0
 30
0.0
1001
VDEXTRAPARAM
1071
        0
1071
        0
1071
        0
1040
1.0
1000

1000

1001
VD_XPROPERTIES
  0
VERTEX
  8
GRID_MINOR
  6
CONTINUOUS
 62
     8
  5
355
 10
0.0
 20
5.3
 30
0.0
  0
VERTEX
  8
GRID_MINOR
  6
CONTINUOUS
 62
     8
  5
356
 10
13.0
 20
5.3
 30
0.0
  0
SEQEND
  8
0
  5
357
  0
POLYLINE
  8
GRID_MINOR
  6
CONTINUOUS
 62
     8
  5
358
 66
     1
 10
0.0
 20
0.0
 30
0.0
1001
VDEXTRAPARAM
1071
        0
1071
        0
1071
        0
1040
1.0
1000

1000

1001
VD_XPROPERTIES
  0
VERTEX
  8
GRID_MINOR
  6
CONTINUOUS
 62
     8
  5
359
 10
0.0
 20
5.4
 30
0.0
  0
VERTEX
  8
GRID_MINOR
  6
CONTINUOUS
 62
     8
  5
35A
 10
13.0
 20
5.4
 30
0.0
  0
SEQEND
  8
0
  5
35B
  0
POLYLINE
  8
GRID_MINOR
  6
CONTINUOUS
 62
     8
  5
35C
 66
     1
 10
0.0
 20
0.0
 30
0.0
1001
VDEXTRAPARAM
1071
        0
1071
        0
1071
        0
1040
1.0
1000

1000

1001
VD_XPROPERTIES
  0
VERTEX
  8
GRID_MINOR
  6
CONTINUOUS
 62
     8
  5
35D
 10
0.0
 20
5.5
 30
0.0
  0
VERTEX
  8
GRID_MINOR
  6
CONTINUOUS
 62
     8
  5
35E
 10
13.0
 20
5.5
 30
0.0
  0
SEQEND
  8
0
  5
35F
  0
POLYLINE
  8
GRID_MINOR
  6
CONTINUOUS
 62
     8
  5
360
 66
     1
 10
0.0
 20
0.0
 30
0.0
1001
VDEXTRAPARAM
1071
        0
1071
        0
1071
        0
1040
1.0
1000

1000

1001
VD_XPROPERTIES
  0
VERTEX
  8
GRID_MINOR
  6
CONTINUOUS
 62
     8
  5
361
 10
0.0
 20
5.6
 30
0.0
  0
VERTEX
  8
GRID_MINOR
  6
CONTINUOUS
 62
     8
  5
362
 10
13.0
 20
5.6
 30
0.0
  0
SEQEND
  8
0
  5
363
  0
POLYLINE
  8
GRID_MINOR
  6
CONTINUOUS
 62
     8
  5
364
 66
     1
 10
0.0
 20
0.0
 30
0.0
1001
VDEXTRAPARAM
1071
        0
1071
        0
1071
        0
1040
1.0
1000

1000

1001
VD_XPROPERTIES
  0
VERTEX
  8
GRID_MINOR
  6
CONTINUOUS
 62
     8
  5
365
 10
0.0
 20
5.7
 30
0.0
  0
VERTEX
  8
GRID_MINOR
  6
CONTINUOUS
 62
     8
  5
366
 10
13.0
 20
5.7
 30
0.0
  0
SEQEND
  8
0
  5
367
  0
POLYLINE
  8
GRID_MINOR
  6
CONTINUOUS
 62
     8
  5
368
 66
     1
 10
0.0
 20
0.0
 30
0.0
1001
VDEXTRAPARAM
1071
        0
1071
        0
1071
        0
1040
1.0
1000

1000

1001
VD_XPROPERTIES
  0
VERTEX
  8
GRID_MINOR
  6
CONTINUOUS
 62
     8
  5
369
 10
0.0
 20
5.8
 30
0.0
  0
VERTEX
  8
GRID_MINOR
  6
CONTINUOUS
 62
     8
  5
36A
 10
13.0
 20
5.8
 30
0.0
  0
SEQEND
  8
0
  5
36B
  0
POLYLINE
  8
GRID_MINOR
  6
CONTINUOUS
 62
     8
  5
36C
 66
     1
 10
0.0
 20
0.0
 30
0.0
1001
VDEXTRAPARAM
1071
        0
1071
        0
1071
        0
1040
1.0
1000

1000

1001
VD_XPROPERTIES
  0
VERTEX
  8
GRID_MINOR
  6
CONTINUOUS
 62
     8
  5
36D
 10
0.0
 20
5.9
 30
0.0
  0
VERTEX
  8
GRID_MINOR
  6
CONTINUOUS
 62
     8
  5
36E
 10
13.0
 20
5.9
 30
0.0
  0
SEQEND
  8
0
  5
36F
  0
POLYLINE
  8
GRID_MINOR
  6
CONTINUOUS
 62
     8
  5
370
 66
     1
 10
0.0
 20
0.0
 30
0.0
1001
VDEXTRAPARAM
1071
        0
1071
        0
1071
        0
1040
1.0
1000

1000

1001
VD_XPROPERTIES
  0
VERTEX
  8
GRID_MINOR
  6
CONTINUOUS
 62
     8
  5
371
 10
0.0
 20
6.1
 30
0.0
  0
VERTEX
  8
GRID_MINOR
  6
CONTINUOUS
 62
     8
  5
372
 10
13.0
 20
6.1
 30
0.0
  0
SEQEND
  8
0
  5
373
  0
POLYLINE
  8
GRID_MINOR
  6
CONTINUOUS
 62
     8
  5
374
 66
     1
 10
0.0
 20
0.0
 30
0.0
1001
VDEXTRAPARAM
1071
        0
1071
        0
1071
        0
1040
1.0
1000

1000

1001
VD_XPROPERTIES
  0
VERTEX
  8
GRID_MINOR
  6
CONTINUOUS
 62
     8
  5
375
 10
0.0
 20
6.2
 30
0.0
  0
VERTEX
  8
GRID_MINOR
  6
CONTINUOUS
 62
     8
  5
376
 10
13.0
 20
6.2
 30
0.0
  0
SEQEND
  8
0
  5
377
  0
POLYLINE
  8
GRID_MINOR
  6
CONTINUOUS
 62
     8
  5
378
 66
     1
 10
0.0
 20
0.0
 30
0.0
1001
VDEXTRAPARAM
1071
        0
1071
        0
1071
        0
1040
1.0
1000

1000

1001
VD_XPROPERTIES
  0
VERTEX
  8
GRID_MINOR
  6
CONTINUOUS
 62
     8
  5
379
 10
0.0
 20
6.3
 30
0.0
  0
VERTEX
  8
GRID_MINOR
  6
CONTINUOUS
 62
     8
  5
37A
 10
13.0
 20
6.3
 30
0.0
  0
SEQEND
  8
0
  5
37B
  0
POLYLINE
  8
GRID_MINOR
  6
CONTINUOUS
 62
     8
  5
37C
 66
     1
 10
0.0
 20
0.0
 30
0.0
1001
VDEXTRAPARAM
1071
        0
1071
        0
1071
        0
1040
1.0
1000

1000

1001
VD_XPROPERTIES
  0
VERTEX
  8
GRID_MINOR
  6
CONTINUOUS
 62
     8
  5
37D
 10
0.0
 20
6.4
 30
0.0
  0
VERTEX
  8
GRID_MINOR
  6
CONTINUOUS
 62
     8
  5
37E
 10
13.0
 20
6.4
 30
0.0
  0
SEQEND
  8
0
  5
37F
  0
POLYLINE
  8
GRID_MINOR
  6
CONTINUOUS
 62
     8
  5
380
 66
     1
 10
0.0
 20
0.0
 30
0.0
1001
VDEXTRAPARAM
1071
        0
1071
        0
1071
        0
1040
1.0
1000

1000

1001
VD_XPROPERTIES
  0
VERTEX
  8
GRID_MINOR
  6
CONTINUOUS
 62
     8
  5
381
 10
0.0
 20
6.5
 30
0.0
  0
VERTEX
  8
GRID_MINOR
  6
CONTINUOUS
 62
     8
  5
382
 10
13.0
 20
6.5
 30
0.0
  0
SEQEND
  8
0
  5
383
  0
POLYLINE
  8
GRID_MINOR
  6
CONTINUOUS
 62
     8
  5
384
 66
     1
 10
0.0
 20
0.0
 30
0.0
1001
VDEXTRAPARAM
1071
        0
1071
        0
1071
        0
1040
1.0
1000

1000

1001
VD_XPROPERTIES
  0
VERTEX
  8
GRID_MINOR
  6
CONTINUOUS
 62
     8
  5
385
 10
0.0
 20
6.6
 30
0.0
  0
VERTEX
  8
GRID_MINOR
  6
CONTINUOUS
 62
     8
  5
386
 10
13.0
 20
6.6
 30
0.0
  0
SEQEND
  8
0
  5
387
  0
POLYLINE
  8
GRID_MINOR
  6
CONTINUOUS
 62
     8
  5
388
 66
     1
 10
0.0
 20
0.0
 30
0.0
1001
VDEXTRAPARAM
1071
        0
1071
        0
1071
        0
1040
1.0
1000

1000

1001
VD_XPROPERTIES
  0
VERTEX
  8
GRID_MINOR
  6
CONTINUOUS
 62
     8
  5
389
 10
0.0
 20
6.7
 30
0.0
  0
VERTEX
  8
GRID_MINOR
  6
CONTINUOUS
 62
     8
  5
38A
 10
13.0
 20
6.7
 30
0.0
  0
SEQEND
  8
0
  5
38B
  0
POLYLINE
  8
GRID_MINOR
  6
CONTINUOUS
 62
     8
  5
38C
 66
     1
 10
0.0
 20
0.0
 30
0.0
1001
VDEXTRAPARAM
1071
        0
1071
        0
1071
        0
1040
1.0
1000

1000

1001
VD_XPROPERTIES
  0
VERTEX
  8
GRID_MINOR
  6
CONTINUOUS
 62
     8
  5
38D
 10
0.0
 20
6.8
 30
0.0
  0
VERTEX
  8
GRID_MINOR
  6
CONTINUOUS
 62
     8
  5
38E
 10
13.0
 20
6.8
 30
0.0
  0
SEQEND
  8
0
  5
38F
  0
POLYLINE
  8
GRID_MINOR
  6
CONTINUOUS
 62
     8
  5
390
 66
     1
 10
0.0
 20
0.0
 30
0.0
1001
VDEXTRAPARAM
1071
        0
1071
        0
1071
        0
1040
1.0
1000

1000

1001
VD_XPROPERTIES
  0
VERTEX
  8
GRID_MINOR
  6
CONTINUOUS
 62
     8
  5
391
 10
0.0
 20
6.9
 30
0.0
  0
VERTEX
  8
GRID_MINOR
  6
CONTINUOUS
 62
     8
  5
392
 10
13.0
 20
6.9
 30
0.0
  0
SEQEND
  8
0
  5
393
  0
POLYLINE
  8
GRID_MINOR
  6
CONTINUOUS
 62
     8
  5
394
 66
     1
 10
0.0
 20
0.0
 30
0.0
1001
VDEXTRAPARAM
1071
        0
1071
        0
1071
        0
1040
1.0
1000

1000

1001
VD_XPROPERTIES
  0
VERTEX
  8
GRID_MINOR
  6
CONTINUOUS
 62
     8
  5
395
 10
0.0
 20
7.1
 30
0.0
  0
VERTEX
  8
GRID_MINOR
  6
CONTINUOUS
 62
     8
  5
396
 10
13.0
 20
7.1
 30
0.0
  0
SEQEND
  8
0
  5
397
  0
POLYLINE
  8
GRID_MINOR
  6
CONTINUOUS
 62
     8
  5
398
 66
     1
 10
0.0
 20
0.0
 30
0.0
1001
VDEXTRAPARAM
1071
        0
1071
        0
1071
        0
1040
1.0
1000

1000

1001
VD_XPROPERTIES
  0
VERTEX
  8
GRID_MINOR
  6
CONTINUOUS
 62
     8
  5
399
 10
0.0
 20
7.2
 30
0.0
  0
VERTEX
  8
GRID_MINOR
  6
CONTINUOUS
 62
     8
  5
39A
 10
13.0
 20
7.2
 30
0.0
  0
SEQEND
  8
0
  5
39B
  0
POLYLINE
  8
GRID_MINOR
  6
CONTINUOUS
 62
     8
  5
39C
 66
     1
 10
0.0
 20
0.0
 30
0.0
1001
VDEXTRAPARAM
1071
        0
1071
        0
1071
        0
1040
1.0
1000

1000

1001
VD_XPROPERTIES
  0
VERTEX
  8
GRID_MINOR
  6
CONTINUOUS
 62
     8
  5
39D
 10
0.0
 20
7.3
 30
0.0
  0
VERTEX
  8
GRID_MINOR
  6
CONTINUOUS
 62
     8
  5
39E
 10
13.0
 20
7.3
 30
0.0
  0
SEQEND
  8
0
  5
39F
  0
POLYLINE
  8
GRID_MAJOR
  6
CONTINUOUS
  5
3A0
 66
     1
 10
0.0
 20
0.0
 30
0.0
1001
VDEXTRAPARAM
1071
        0
1071
        0
1071
        0
1040
1.0
1000

1000

1001
VD_XPROPERTIES
  0
VERTEX
  8
GRID_MAJOR
  6
CONTINUOUS
  5
3A1
 10
0.0
 20
8.0
 30
0.0
  0
VERTEX
  8
GRID_MAJOR
  6
CONTINUOUS
  5
3A2
 10
13.0
 20
8.0
 30
0.0
  0
SEQEND
  8
0
  5
3A3
  0
POLYLINE
  8
GRID_MAJOR
  5
3A4
 66
     1
 10
0.0
 20
0.0
 30
0.0
1001
VDEXTRAPARAM
1071
        0
1071
        0
1071
        0
1040
1.0
1000

1000

1001
VD_XPROPERTIES
  0
VERTEX
  8
GRID_MAJOR
  5
3A5
 10
0.0
 20
9.0
 30
0.0
  0
VERTEX
  8
GRID_MAJOR
  5
3A6
 10
13.0
 20
9.0
 30
0.0
  0
SEQEND
  8
0
  5
3A7
  0
POLYLINE
  8
GRID_MINOR
  6
CONTINUOUS
 62
     8
  5
3A8
 66
     1
 10
0.0
 20
0.0
 30
0.0
1001
VDEXTRAPARAM
1071
        0
1071
        0
1071
        0
1040
1.0
1000

1000

1001
VD_XPROPERTIES
  0
VERTEX
  8
GRID_MINOR
  6
CONTINUOUS
 62
     8
  5
3A9
 10
0.0
 20
7.4
 30
0.0
  0
VERTEX
  8
GRID_MINOR
  6
CONTINUOUS
 62
     8
  5
3AA
 10
13.0
 20
7.4
 30
0.0
  0
SEQEND
  8
0
  5
3AB
  0
POLYLINE
  8
GRID_MINOR
  6
CONTINUOUS
 62
     8
  5
3AC
 66
     1
 10
0.0
 20
0.0
 30
0.0
1001
VDEXTRAPARAM
1071
        0
1071
        0
1071
        0
1040
1.0
1000

1000

1001
VD_XPROPERTIES
  0
VERTEX
  8
GRID_MINOR
  6
CONTINUOUS
 62
     8
  5
3AD
 10
0.0
 20
7.5
 30
0.0
  0
VERTEX
  8
GRID_MINOR
  6
CONTINUOUS
 62
     8
  5
3AE
 10
13.0
 20
7.5
 30
0.0
  0
SEQEND
  8
0
  5
3AF
  0
POLYLINE
  8
GRID_MINOR
  6
CONTINUOUS
 62
     8
  5
3B0
 66
     1
 10
0.0
 20
0.0
 30
0.0
1001
VDEXTRAPARAM
1071
        0
1071
        0
1071
        0
1040
1.0
1000

1000

1001
VD_XPROPERTIES
  0
VERTEX
  8
GRID_MINOR
  6
CONTINUOUS
 62
     8
  5
3B1
 10
0.0
 20
7.6
 30
0.0
  0
VERTEX
  8
GRID_MINOR
  6
CONTINUOUS
 62
     8
  5
3B2
 10
13.0
 20
7.6
 30
0.0
  0
SEQEND
  8
0
  5
3B3
  0
POLYLINE
  8
GRID_MINOR
  6
CONTINUOUS
 62
     8
  5
3B4
 66
     1
 10
0.0
 20
0.0
 30
0.0
1001
VDEXTRAPARAM
1071
        0
1071
        0
1071
        0
1040
1.0
1000

1000

1001
VD_XPROPERTIES
  0
VERTEX
  8
GRID_MINOR
  6
CONTINUOUS
 62
     8
  5
3B5
 10
0.0
 20
7.7
 30
0.0
  0
VERTEX
  8
GRID_MINOR
  6
CONTINUOUS
 62
     8
  5
3B6
 10
13.0
 20
7.7
 30
0.0
  0
SEQEND
  8
0
  5
3B7
  0
POLYLINE
  8
GRID_MINOR
  6
CONTINUOUS
 62
     8
  5
3B8
 66
     1
 10
0.0
 20
0.0
 30
0.0
1001
VDEXTRAPARAM
1071
        0
1071
        0
1071
        0
1040
1.0
1000

1000

1001
VD_XPROPERTIES
  0
VERTEX
  8
GRID_MINOR
  6
CONTINUOUS
 62
     8
  5
3B9
 10
0.0
 20
7.8
 30
0.0
  0
VERTEX
  8
GRID_MINOR
  6
CONTINUOUS
 62
     8
  5
3BA
 10
13.0
 20
7.8
 30
0.0
  0
SEQEND
  8
0
  5
3BB
  0
POLYLINE
  8
GRID_MINOR
  6
CONTINUOUS
 62
     8
  5
3BC
 66
     1
 10
0.0
 20
0.0
 30
0.0
1001
VDEXTRAPARAM
1071
        0
1071
        0
1071
        0
1040
1.0
1000

1000

1001
VD_XPROPERTIES
  0
VERTEX
  8
GRID_MINOR
  6
CONTINUOUS
 62
     8
  5
3BD
 10
0.0
 20
7.9
 30
0.0
  0
VERTEX
  8
GRID_MINOR
  6
CONTINUOUS
 62
     8
  5
3BE
 10
13.0
 20
7.9
 30
0.0
  0
SEQEND
  8
0
  5
3BF
  0
POLYLINE
  8
GRID_MINOR
  6
CONTINUOUS
 62
     8
  5
3C0
 66
     1
 10
0.0
 20
0.0
 30
0.0
1001
VDEXTRAPARAM
1071
        0
1071
        0
1071
        0
1040
1.0
1000

1000

1001
VD_XPROPERTIES
  0
VERTEX
  8
GRID_MINOR
  6
CONTINUOUS
 62
     8
  5
3C1
 10
0.0
 20
8.1
 30
0.0
  0
VERTEX
  8
GRID_MINOR
  6
CONTINUOUS
 62
     8
  5
3C2
 10
13.0
 20
8.1
 30
0.0
  0
SEQEND
  8
0
  5
3C3
  0
POLYLINE
  8
GRID_MINOR
  6
CONTINUOUS
 62
     8
  5
3C4
 66
     1
 10
0.0
 20
0.0
 30
0.0
1001
VDEXTRAPARAM
1071
        0
1071
        0
1071
        0
1040
1.0
1000

1000

1001
VD_XPROPERTIES
  0
VERTEX
  8
GRID_MINOR
  6
CONTINUOUS
 62
     8
  5
3C5
 10
0.0
 20
8.2
 30
0.0
  0
VERTEX
  8
GRID_MINOR
  6
CONTINUOUS
 62
     8
  5
3C6
 10
13.0
 20
8.2
 30
0.0
  0
SEQEND
  8
0
  5
3C7
  0
POLYLINE
  8
GRID_MINOR
  6
CONTINUOUS
 62
     8
  5
3C8
 66
     1
 10
0.0
 20
0.0
 30
0.0
1001
VDEXTRAPARAM
1071
        0
1071
        0
1071
        0
1040
1.0
1000

1000

1001
VD_XPROPERTIES
  0
VERTEX
  8
GRID_MINOR
  6
CONTINUOUS
 62
     8
  5
3C9
 10
0.0
 20
8.3
 30
0.0
  0
VERTEX
  8
GRID_MINOR
  6
CONTINUOUS
 62
     8
  5
3CA
 10
13.0
 20
8.3
 30
0.0
  0
SEQEND
  8
0
  5
3CB
  0
POLYLINE
  8
GRID_MINOR
  6
CONTINUOUS
 62
     8
  5
3CC
 66
     1
 10
0.0
 20
0.0
 30
0.0
1001
VDEXTRAPARAM
1071
        0
1071
        0
1071
        0
1040
1.0
1000

1000

1001
VD_XPROPERTIES
  0
VERTEX
  8
GRID_MINOR
  6
CONTINUOUS
 62
     8
  5
3CD
 10
0.0
 20
8.4
 30
0.0
  0
VERTEX
  8
GRID_MINOR
  6
CONTINUOUS
 62
     8
  5
3CE
 10
13.0
 20
8.4
 30
0.0
  0
SEQEND
  8
0
  5
3CF
  0
POLYLINE
  8
GRID_MINOR
  6
CONTINUOUS
 62
     8
  5
3D0
 66
     1
 10
0.0
 20
0.0
 30
0.0
1001
VDEXTRAPARAM
1071
        0
1071
        0
1071
        0
1040
1.0
1000

1000

1001
VD_XPROPERTIES
  0
VERTEX
  8
GRID_MINOR
  6
CONTINUOUS
 62
     8
  5
3D1
 10
0.0
 20
8.5
 30
0.0
  0
VERTEX
  8
GRID_MINOR
  6
CONTINUOUS
 62
     8
  5
3D2
 10
13.0
 20
8.5
 30
0.0
  0
SEQEND
  8
0
  5
3D3
  0
POLYLINE
  8
GRID_MINOR
  6
CONTINUOUS
 62
     8
  5
3D4
 66
     1
 10
0.0
 20
0.0
 30
0.0
1001
VDEXTRAPARAM
1071
        0
1071
        0
1071
        0
1040
1.0
1000

1000

1001
VD_XPROPERTIES
  0
VERTEX
  8
GRID_MINOR
  6
CONTINUOUS
 62
     8
  5
3D5
 10
0.0
 20
8.6
 30
0.0
  0
VERTEX
  8
GRID_MINOR
  6
CONTINUOUS
 62
     8
  5
3D6
 10
13.0
 20
8.6
 30
0.0
  0
SEQEND
  8
0
  5
3D7
  0
POLYLINE
  8
GRID_MINOR
  6
CONTINUOUS
 62
     8
  5
3D8
 66
     1
 10
0.0
 20
0.0
 30
0.0
1001
VDEXTRAPARAM
1071
        0
1071
        0
1071
        0
1040
1.0
1000

1000

1001
VD_XPROPERTIES
  0
VERTEX
  8
GRID_MINOR
  6
CONTINUOUS
 62
     8
  5
3D9
 10
0.0
 20
8.7
 30
0.0
  0
VERTEX
  8
GRID_MINOR
  6
CONTINUOUS
 62
     8
  5
3DA
 10
13.0
 20
8.7
 30
0.0
  0
SEQEND
  8
0
  5
3DB
  0
POLYLINE
  8
GRID_MINOR
  6
CONTINUOUS
 62
     8
  5
3DC
 66
     1
 10
0.0
 20
0.0
 30
0.0
1001
VDEXTRAPARAM
1071
        0
1071
        0
1071
        0
1040
1.0
1000

1000

1001
VD_XPROPERTIES
  0
VERTEX
  8
GRID_MINOR
  6
CONTINUOUS
 62
     8
  5
3DD
 10
0.0
 20
8.8
 30
0.0
  0
VERTEX
  8
GRID_MINOR
  6
CONTINUOUS
 62
     8
  5
3DE
 10
13.0
 20
8.8
 30
0.0
  0
SEQEND
  8
0
  5
3DF
  0
POLYLINE
  8
GRID_MINOR
  6
CONTINUOUS
 62
     8
  5
3E0
 66
     1
 10
0.0
 20
0.0
 30
0.0
1001
VDEXTRAPARAM
1071
        0
1071
        0
1071
        0
1040
1.0
1000

1000

1001
VD_XPROPERTIES
  0
VERTEX
  8
GRID_MINOR
  6
CONTINUOUS
 62
     8
  5
3E1
 10
0.0
 20
8.9
 30
0.0
  0
VERTEX
  8
GRID_MINOR
  6
CONTINUOUS
 62
     8
  5
3E2
 10
13.0
 20
8.9
 30
0.0
  0
SEQEND
  8
0
  5
3E3
  0
ENDBLK
  8
0
  5
3E4
  0
BLOCK
  8
0
  5
3E5
  2
ROCK
 70
     0
 10
0.0
 20
0.0
 30
0.0
  3
ROCK
1001
VD_XPROPERTIES
  0
LINE
  8
ROCK
 62
     1
  5
3E6
 10
0.850928
 20
0.001282
 30
0.0
 11
0.880387
 21
-0.028177
 31
0.0
1001
VD_XPROPERTIES
  0
LINE
  8
ROCK
 62
     1
  5
3E7
 10
0.832085
 20
-0.017561
 30
0.0
 11
0.880387
 21
-0.065863
 31
0.0
1001
VD_XPROPERTIES
  0
LINE
  8
ROCK
 62
     1
  5
3E8
 10
0.813242
 20
-0.036404
 30
0.0
 11
0.875607
 21
-0.098768
 31
0.0
1001
VD_XPROPERTIES
  0
LINE
  8
ROCK
 62
     1
  5
3E9
 10
0.775501
 20
0.001282
 30
0.0
 11
0.713192
 21
-0.061027
 31
0.0
1001
VD_XPROPERTIES
  0
LINE
  8
ROCK
 62
     1
  5
3EA
 10
0.813187
 20
0.001282
 30
0.0
 11
0.732035
 21
-0.07987
 31
0.0
1001
VD_XPROPERTIES
  0
LINE
  8
ROCK
 62
     1
  5
3EB
 10
0.850928
 20
0.001282
 30
0.0
 11
0.750878
 21
-0.098768
 31
0.0
1001
VD_XPROPERTIES
  0
LINE
  8
ROCK
 62
     1
  5
3EC
 10
0.650828
 20
0.001282
 30
0.0
 11
0.750878
 21
-0.098768
 31
0.0
1001
VD_XPROPERTIES
  0
LINE
  8
ROCK
 62
     1
  5
3ED
 10
0.631985
 20
-0.017561
 30
0.0
 11
0.713192
 21
-0.098768
 31
0.0
1001
VD_XPROPERTIES
  0
LINE
  8
ROCK
 62
     1
  5
3EE
 10
0.613142
 20
-0.036404
 30
0.0
 11
0.675507
 21
-0.098768
 31
0.0
1001
VD_XPROPERTIES
  0
LINE
  8
ROCK
 62
     1
  5
3EF
 10
0.575401
 20
0.001282
 30
0.0
 11
0.513092
 21
-0.061027
 31
0.0
1001
VD_XPROPERTIES
  0
LINE
  8
ROCK
 62
     1
  5
3F0
 10
0.613087
 20
0.001282
 30
0.0
 11
0.531935
 21
-0.07987
 31
0.0
1001
VD_XPROPERTIES
  0
LINE
  8
ROCK
 62
     1
  5
3F1
 10
0.650828
 20
0.001282
 30
0.0
 11
0.550778
 21
-0.098768
 31
0.0
1001
VD_XPROPERTIES
  0
LINE
  8
ROCK
 62
     1
  5
3F2
 10
0.450728
 20
0.001282
 30
0.0
 11
0.550778
 21
-0.098768
 31
0.0
1001
VD_XPROPERTIES
  0
LINE
  8
ROCK
 62
     1
  5
3F3
 10
0.431885
 20
-0.017561
 30
0.0
 11
0.513092
 21
-0.098768
 31
0.0
1001
VD_XPROPERTIES
  0
LINE
  8
ROCK
 62
     1
  5
3F4
 10
0.413042
 20
-0.036404
 30
0.0
 11
0.475407
 21
-0.098768
 31
0.0
1001
VD_XPROPERTIES
  0
LINE
  8
ROCK
 62
     1
  5
3F5
 10
0.250628
 20
0.001282
 30
0.0
 11
0.350678
 21
-0.098768
 31
0.0
1001
VD_XPROPERTIES
  0
LINE
  8
ROCK
 62
     1
  5
3F6
 10
0.22984
 20
-0.015615
 30
0.0
 11
0.312992
 21
-0.098768
 31
0.0
1001
VD_XPROPERTIES
  0
LINE
  8
ROCK
 62
     1
  5
3F7
 10
0.210997
 20
-0.034458
 30
0.0
 11
0.275307
 21
-0.098768
 31
0.0
1001
VD_XPROPERTIES
  0
LINE
  8
ROCK
 62
     1
  5
3F8
 10
0.375301
 20
0.001282
 30
0.0
 11
0.312992
 21
-0.061027
 31
0.0
1001
VD_XPROPERTIES
  0
LINE
  8
ROCK
 62
     1
  5
3F9
 10
0.412987
 20
0.001282
 30
0.0
 11
0.331835
 21
-0.07987
 31
0.0
1001
VD_XPROPERTIES
  0
LINE
  8
ROCK
 62
     1
  5
3FA
 10
0.450728
 20
0.001282
 30
0.0
 11
0.350678
 21
-0.098768
 31
0.0
1001
VD_XPROPERTIES
  0
LINE
  8
ROCK
 62
     1
  5
3FB
 10
0.171311
 20
0.001282
 30
0.0
 11
0.146687
 21
-0.023342
 31
0.0
1001
VD_XPROPERTIES
  0
LINE
  8
ROCK
 62
     1
  5
3FC
 10
0.208996
 20
0.001282
 30
0.0
 11
0.146687
 21
-0.061027
 31
0.0
1001
VD_XPROPERTIES
  0
LINE
  8
ROCK
 62
     1
  5
3FD
 10
0.246737
 20
0.001282
 30
0.0
 11
0.146687
 21
-0.098768
 31
0.0
1001
VD_XPROPERTIES
  0
ENDBLK
  8
0
  5
3FE
  0
BLOCK
  8
0
  5
3FF
  2
BACKWATER
 70
     0
 10
0.0
 20
0.0
 30
0.0
  3
BACKWATER
1001
VD_XPROPERTIES
  0
POLYLINE
  8
BACKWATER
  5
400
 66
     1
 10
0.0
 20
0.0
 30
0.0
1001
VDEXTRAPARAM
1071
        1
1071
        0
1071
        0
1040
0.0
1000
SOLID
1000

1001
VD_XPROPERTIES
  0
VERTEX
  8
BACKWATER
  5
401
 10
0.0
 20
0.0
 30
0.0
  0
VERTEX
  8
BACKWATER
  5
402
 10
0.1
 20
0.026795
 30
0.0
  0
VERTEX
  8
BACKWATER
  5
403
 10
0.1
 20
-0.026795
 30
0.0
  0
VERTEX
  8
BACKWATER
  5
404
 10
0.0
 20
0.0
 30
0.0
  0
SEQEND
  8
0
  5
405
  0
POLYLINE
  8
BACKWATER
  5
407
 66
     1
 10
0.0
 20
0.0
 30
0.0
1001
VDEXTRAPARAM
1071
        1
1071
        0
1071
        0
1040
0.0
1000
SOLID
1000

1001
VD_XPROPERTIES
  0
VERTEX
  8
BACKWATER
  5
408
 10
1.0
 20
0.0
 30
0.0
  0
VERTEX
  8
BACKWATER
  5
409
 10
0.9
 20
0.026795
 30
0.0
  0
VERTEX
  8
BACKWATER
  5
40A
 10
0.9
 20
-0.026795
 30
0.0
  0
VERTEX
  8
BACKWATER
  5
40B
 10
1.0
 20
0.0
 30
0.0
  0
SEQEND
  8
0
  5
40C
  0
POLYLINE
  8
BACKWATER
  5
40E
 66
     1
 10
0.0
 20
0.0
 30
0.0
1001
VDEXTRAPARAM
1071
        0
1071
        0
1071
        0
1040
1.0
1000

1000

1001
VD_XPROPERTIES
  0
VERTEX
  8
BACKWATER
  5
40F
 10
0.0
 20
0.0
 30
0.0
  0
VERTEX
  8
BACKWATER
  5
410
 10
0.1
 20
0.026795
 30
0.0
  0
VERTEX
  8
BACKWATER
  5
411
 10
0.1
 20
-0.026795
 30
0.0
  0
VERTEX
  8
BACKWATER
  5
412
 10
0.0
 20
0.0
 30
0.0
  0
SEQEND
  8
0
  5
413
  0
POLYLINE
  8
BACKWATER
  5
414
 66
     1
 10
0.0
 20
0.0
 30
0.0
1001
VDEXTRAPARAM
1071
        0
1071
        0
1071
        0
1040
1.0
1000

1000

1001
VD_XPROPERTIES
  0
VERTEX
  8
BACKWATER
  5
415
 10
1.0
 20
0.0
 30
0.0
  0
VERTEX
  8
BACKWATER
  5
416
 10
0.9
 20
0.026795
 30
0.0
  0
VERTEX
  8
BACKWATER
  5
417
 10
0.9
 20
-0.026795
 30
0.0
  0
VERTEX
  8
BACKWATER
  5
418
 10
1.0
 20
0.0
 30
0.0
  0
SEQEND
  8
0
  5
419
  0
POLYLINE
  8
BACKWATER
  5
41A
 66
     1
 10
0.0
 20
0.0
 30
0.0
1001
VDEXTRAPARAM
1071
        0
1071
        0
1071
        0
1040
1.0
1000

1000

1001
VD_XPROPERTIES
  0
VERTEX
  8
BACKWATER
  5
41B
 10
0.0
 20
0.0
 30
0.0
  0
VERTEX
  8
BACKWATER
  5
41C
 10
1.0
 20
0.0
 30
0.0
  0
VERTEX
  8
BACKWATER
  5
41D
 10
1.0
 20
0.0
 30
0.0
  0
VERTEX
  8
BACKWATER
  5
41E
 10
1.0
 20
0.0
 30
0.0
  0
SEQEND
  8
0
  5
41F
  0
POLYLINE
  8
BACKWATER
  5
420
 66
     1
 10
0.0
 20
0.0
 30
0.0
1001
VDEXTRAPARAM
1071
        0
1071
        0
1071
        0
1040
1.0
1000

1000

1001
VD_XPROPERTIES
  0
VERTEX
  8
BACKWATER
  5
421
 10
0.0
 20
0.15
 30
0.0
  0
VERTEX
  8
BACKWATER
  5
422
 10
0.0
 20
-0.15
 30
0.0
  0
VERTEX
  8
BACKWATER
  5
423
 10
0.0
 20
-0.15
 30
0.0
  0
VERTEX
  8
BACKWATER
  5
424
 10
0.0
 20
-0.15
 30
0.0
  0
SEQEND
  8
0
  5
425
  0
POLYLINE
  8
BACKWATER
  5
426
 66
     1
 10
0.0
 20
0.0
 30
0.0
1001
VDEXTRAPARAM
1071
        0
1071
        0
1071
        0
1040
1.0
1000

1000

1001
VD_XPROPERTIES
  0
VERTEX
  8
BACKWATER
  5
427
 10
1.0
 20
0.15
 30
0.0
  0
VERTEX
  8
BACKWATER
  5
428
 10
1.0
 20
-0.15
 30
0.0
  0
VERTEX
  8
BACKWATER
  5
429
 10
1.0
 20
-0.15
 30
0.0
  0
VERTEX
  8
BACKWATER
  5
42A
 10
1.0
 20
-0.15
 30
0.0
  0
SEQEND
  8
0
  5
42B
  0
ENDBLK
  8
0
  5
42C
  0
BLOCK
  8
0
  5
42D
  2
LEADER
 70
     0
 10
0.0
 20
0.0
 30
0.0
  3
LEADER
1001
VD_XPROPERTIES
  0
POLYLINE
  8
LEADER
  5
42E
 66
     1
 10
0.0
 20
0.0
 30
0.0
1001
VDEXTRAPARAM
1071
        1
1071
        0
1071
        0
1040
0.0
1000
SOLID
1000

1001
VD_XPROPERTIES
  0
VERTEX
  8
LEADER
  5
42F
 10
0.0
 20
0.0
 30
0.0
  0
VERTEX
  8
LEADER
  5
430
 10
0.05
 20
0.013398
 30
0.0
  0
VERTEX
  8
LEADER
  5
431
 10
0.05
 20
-0.013398
 30
0.0
  0
VERTEX
  8
LEADER
  5
432
 10
0.0
 20
0.0
 30
0.0
  0
SEQEND
  8
0
  5
433
  0
POLYLINE
  8
LEADER
  5
435
 66
     1
 10
0.0
 20
0.0
 30
0.0
1001
VDEXTRAPARAM
1071
        0
1071
        0
1071
        0
1040
1.0
1000

1000

1001
VD_XPROPERTIES
  0
VERTEX
  8
LEADER
  5
436
 10
0.0
 20
0.0
 30
0.0
  0
VERTEX
  8
LEADER
  5
437
 10
0.05
 20
0.013398
 30
0.0
  0
VERTEX
  8
LEADER
  5
438
 10
0.05
 20
-0.013398
 30
0.0
  0
VERTEX
  8
LEADER
  5
439
 10
0.0
 20
0.0
 30
0.0
  0
SEQEND
  8
0
  5
43A
  0
POLYLINE
  8
LEADER
  5
43B
 66
     1
 10
0.0
 20
0.0
 30
0.0
1001
VDEXTRAPARAM
1071
        0
1071
        0
1071
        0
1040
1.0
1000

1000

1001
VD_XPROPERTIES
  0
VERTEX
  8
LEADER
  5
43C
 10
0.0
 20
0.0
 30
0.0
  0
VERTEX
  8
LEADER
  5
43D
 10
1.0
 20
0.0
 30
0.0
  0
VERTEX
  8
LEADER
  5
43E
 10
1.0
 20
0.0
 30
0.0
  0
VERTEX
  8
LEADER
  5
43F
 10
1.0
 20
0.0
 30
0.0
  0
SEQEND
  8
0
  5
440
  0
ENDBLK
  8
0
  5
441
  0
BLOCK
  8
0
  5
442
  2
DAM
 70
     0
 10
0.0
 20
0.0
 30
0.0
  3
DAM
1001
VD_XPROPERTIES
  0
POLYLINE
  8
DAM
 62
     5
  5
443
 66
     1
 10
0.0
 20
0.0
 30
0.0
 40
20.0
 41
20.0
1001
VDEXTRAPARAM
1071
        0
1071
        0
1071
        0
1040
1.0
1000

1000

1001
VD_XPROPERTIES
  0
VERTEX
  8
DAM
 62
     5
  5
444
 10
0.0
 20
0.0
 30
0.0
  0
VERTEX
  8
DAM
 62
     5
  5
445
 10
1.0
 20
1.0
 30
0.0
  0
SEQEND
  8
0
  5
446
  0
ENDBLK
  8
0
  5
447
  0
BLOCK
  8
0
  5
448
  2
CULVERT
 70
     0
 10
0.0
 20
0.0
 30
0.0
  3
CULVERT
1001
VD_XPROPERTIES
  0
POLYLINE
  8
CULVERT
 62
     1
  5
449
 66
     1
 10
0.0
 20
0.0
 30
0.0
 40
5.0
 41
5.0
1001
VDEXTRAPARAM
1071
        0
1071
        0
1071
        0
1040
1.0
1000

1000

1001
VD_XPROPERTIES
  0
VERTEX
  8
CULVERT
 62
     1
  5
44A
 10
0.0
 20
0.0
 30
0.0
  0
VERTEX
  8
CULVERT
 62
     1
  5
44B
 10
1.0
 20
1.0
 30
0.0
  0
SEQEND
  8
0
  5
44C
  0
ENDBLK
  8
0
  5
44D
  0
BLOCK
  8
0
  5
44E
  2
XSEC
 70
     0
 10
0.0
 20
0.0
 30
0.0
  3
XSEC
1001
VD_XPROPERTIES
  0
POLYLINE
  8
XSEC
  5
44F
 66
     1
 10
0.0
 20
0.0
 30
0.0
1001
VDEXTRAPARAM
1071
        0
1071
        0
1071
        0
1040
1.0
1000

1000

1001
VD_XPROPERTIES
  0
VERTEX
  8
XSEC
  5
450
 10
-0.129917
 20
0.074558
 30
0.0
  0
VERTEX
  8
XSEC
  5
451
 10
-0.129917
 20
-0.075442
 30
0.0
  0
VERTEX
  8
XSEC
  5
452
 10
0.0
 20
-0.150442
 30
0.0
  0
VERTEX
  8
XSEC
  5
453
 10
0.129917
 20
-0.075442
 30
0.0
  0
VERTEX
  8
XSEC
  5
454
 10
0.129917
 20
0.074558
 30
0.0
  0
VERTEX
  8
XSEC
  5
455
 10
0.0
 20
0.149558
 30
0.0
  0
VERTEX
  8
XSEC
  5
456
 10
-0.129917
 20
0.074558
 30
0.0
  0
VERTEX
  8
XSEC
  5
457
 10
-0.129917
 20
0.074558
 30
0.0
  0
SEQEND
  8
0
  5
458
  0
LINE
  8
XSEC
  5
459
 10
0.0
 20
0.149558
 30
0.0
 11
0.0
 21
0.207141
 31
0.0
1001
VD_XPROPERTIES
  0
ENDBLK
  8
0
  5
45A
  0
BLOCK
  8
0
  5
45B
  2
V_BASE
 70
     0
 10
0.0
 20
0.0
 30
0.0
  3
V_BASE
1001
VD_XPROPERTIES
  0
LINE
  8
XSEC_LINE
  5
45C
 10
0.0
 20
0.0
 30
0.0
 11
0.0
 21
1.0
 31
0.0
1001
VD_XPROPERTIES
  0
ENDBLK
  8
0
  5
45D
  0
BLOCK
  8
0
  5
45E
  2
ADO102
 70
     0
 10
-2200.0
 20
0.0
 30
0.0
  3
ADO102
1001
VD_XPROPERTIES
  0
ENDBLK
  8
0
  5
45F
  0
ENDSEC
  0
SECTION
  2
ENTITIES
  0
INSERT
  8
GRIDS
  5
460
  2
BORDER
 10
0.0
 20
100.0
 30
0.0
 41
500.0
 42
500.0
1001
VD_XPROPERTIES
  0
TEXT
  8
TEXT
  5
461
 10
-170.0
 20
77.5
 30
0.0
 40
60.0
  1
 3240
1001
VD_XPROPERTIES
  0
TEXT
  8
TEXT
  5
462
 10
-170.0
 20
577.5
 30
0.0
 40
60.0
  1
 3260
1001
VD_XPROPERTIES
  0
TEXT
  8
TEXT
  5
463
 10
-170.0
 20
1077.5
 30
0.0
 40
60.0
  1
 3280
1001
VD_XPROPERTIES
  0
TEXT
  8
TEXT
  5
464
 10
6555.0
 20
1077.5
 30
0.0
 40
60.0
  1
 3280
1001
VD_XPROPERTIES
  0
TEXT
  8
TEXT
  5
465
 10
-170.0
 20
1577.5
 30
0.0
 40
60.0
  1
 3300
1001
VD_XPROPERTIES
  0
TEXT
  8
TEXT
  5
466
 10
6555.0
 20
1577.5
 30
0.0
 40
60.0
  1
 3300
1001
VD_XPROPERTIES
  0
TEXT
  8
TEXT
  5
467
 10
-170.0
 20
2077.5
 30
0.0
 40
60.0
  1
 3320
1001
VD_XPROPERTIES
  0
TEXT
  8
TEXT
  5
468
 10
6555.0
 20
2077.5
 30
0.0
 40
60.0
  1
 3320
1001
VD_XPROPERTIES
  0
TEXT
  8
TEXT
  5
469
 10
-170.0
 20
2577.5
 30
0.0
 40
60.0
  1
 3340
1001
VD_XPROPERTIES
  0
TEXT
  8
TEXT
  5
46A
 10
6555.0
 20
2577.5
 30
0.0
 40
60.0
  1
 3340
1001
VD_XPROPERTIES
  0
TEXT
  8
TEXT
  5
46B
 10
-170.0
 20
3077.5
 30
0.0
 40
60.0
  1
 3360
1001
VD_XPROPERTIES
  0
TEXT
  8
TEXT
  5
46C
 10
6555.0
 20
3077.5
 30
0.0
 40
60.0
  1
 3360
1001
VD_XPROPERTIES
  0
TEXT
  8
TEXT
  5
46D
 10
-170.0
 20
3577.5
 30
0.0
 40
60.0
  1
 3380
1001
VD_XPROPERTIES
  0
TEXT
  8
TEXT
  5
46E
 10
6555.0
 20
3577.5
 30
0.0
 40
60.0
  1
 3380
1001
VD_XPROPERTIES
  0
TEXT
  8
TEXT
  5
46F
 10
-170.0
 20
4077.5
 30
0.0
 40
60.0
  1
 3400
1001
VD_XPROPERTIES
  0
TEXT
  8
TEXT
  5
470
 10
6555.0
 20
4077.5
 30
0.0
 40
60.0
  1
 3400
1001
VD_XPROPERTIES
  0
TEXT
  8
TEXT
  5
471
 10
-170.0
 20
4577.5
 30
0.0
 40
60.0
  1
 3420
1001
VD_XPROPERTIES
  0
TEXT
  8
TEXT
  5
472
 10
6555.0
 20
4577.5
 30
0.0
 40
60.0
  1
 3420
1001
VD_XPROPERTIES
  0
TEXT
  8
TEXT
  5
473
 10
5.5
 20
0.001
 30
0.0
 40
60.0
  1
0
 72
     1
 11
5.5
 21
0.001
 31
0.0
1001
VD_XPROPERTIES
  0
TEXT
  8
TEXT
  5
474
 10
504.5
 20
0.001
 30
0.0
 40
60.0
  1
500
 72
     1
 11
504.5
 21
0.001
 31
0.0
1001
VD_XPROPERTIES
  0
TEXT
  8
TEXT
  5
475
 10
1004.0
 20
0.001
 30
0.0
 40
60.0
  1
1000
 72
     1
 11
1004.0
 21
0.001
 31
0.0
1001
VD_XPROPERTIES
  0
TEXT
  8
TEXT
  5
476
 10
1504.0
 20
0.001
 30
0.0
 40
60.0
  1
1500
 72
     1
 11
1504.0
 21
0.001
 31
0.0
1001
VD_XPROPERTIES
  0
TEXT
  8
TEXT
  5
477
 10
2004.0
 20
0.001
 30
0.0
 40
60.0
  1
2000
 72
     1
 11
2004.0
 21
0.001
 31
0.0
1001
VD_XPROPERTIES
  0
TEXT
  8
TEXT
  5
478
 10
2504.0
 20
0.001
 30
0.0
 40
60.0
  1
2500
 72
     1
 11
2504.0
 21
0.001
 31
0.0
1001
VD_XPROPERTIES
  0
TEXT
  8
TEXT
  5
479
 10
3004.0
 20
0.001
 30
0.0
 40
60.0
  1
3000
 72
     1
 11
3004.0
 21
0.001
 31
0.0
1001
VD_XPROPERTIES
  0
TEXT
  8
TEXT
  5
47A
 10
3504.0
 20
0.001
 30
0.0
 40
60.0
  1
3500
 72
     1
 11
3504.0
 21
0.001
 31
0.0
1001
VD_XPROPERTIES
  0
TEXT
  8
TEXT
  5
47B
 10
4004.0
 20
0.001
 30
0.0
 40
60.0
  1
4000
 72
     1
 11
4004.0
 21
0.001
 31
0.0
1001
VD_XPROPERTIES
  0
TEXT
  8
TEXT
  5
47C
 10
4504.0
 20
0.001
 30
0.0
 40
60.0
  1
4500
 72
     1
 11
4504.0
 21
0.001
 31
0.0
1001
VD_XPROPERTIES
  0
TEXT
  8
TEXT
  5
47D
 10
5004.0
 20
0.001
 30
0.0
 40
60.0
  1
5000
 72
     1
 11
5004.0
 21
0.001
 31
0.0
1001
VD_XPROPERTIES
  0
TEXT
  8
TEXT
  5
47E
 10
5504.0
 20
0.001
 30
0.0
 40
60.0
  1
5500
 72
     1
 11
5504.0
 21
0.001
 31
0.0
1001
VD_XPROPERTIES
  0
TEXT
  8
TEXT
  5
47F
 10
6004.0
 20
0.001
 30
0.0
 40
60.0
  1
6000
 72
     1
 11
6004.0
 21
0.001
 31
0.0
1001
VD_XPROPERTIES
  0
TEXT
  8
TEXT
  5
480
 10
6504.0
 20
0.001
 30
0.0
 40
60.0
  1
6500
 72
     1
 11
6504.0
 21
0.001
 31
0.0
1001
VD_XPROPERTIES
  0
TEXT
  8
TEXT
  5
481
 10
-280.0
 20
2350.0
 30
0.0
 40
60.0
  1
ELEVATION IN FEET (NGVD)
 50
90.0
 72
     1
 11
-280.0
 21
2350.0
 31
0.0
1001
VD_XPROPERTIES
  0
TEXT
  8
TEXT
  5
482
 10
3250.0
 20
-175.0
 30
0.0
 40
60.0
  1
STREAM DISTANCE IN FEET ABOVE CONFLUENCE WITH BLOODY TANKS WASH
 72
     1
 11
3250.0
 21
-175.0
 31
0.0
1001
VD_XPROPERTIES
  0
TEXT
  8
TEXT
  5
483
 10
6875.0
 20
862.5
 30
0.0
 40
80.0
  1
FEDERAL EMERGENCY MANAGEMENT AGENCY
 50
90.0
 72
     1
 11
6875.0
 21
862.5
 31
0.0
1001
VD_XPROPERTIES
  0
TEXT
  8
TEXT
  5
484
 10
7050.0
 20
862.5
 30
0.0
 40
100.0
  1
GILA COUNTY, AZ
 50
90.0
 72
     1
 11
7050.0
 21
862.5
 31
0.0
1001
VD_XPROPERTIES
  0
TEXT
  8
TEXT
  5
485
 10
7175.0
 20
862.5
 30
0.0
 40
70.0
  1
(UNINCORPORATED AREAS)
 50
90.0
 72
     1
 11
7175.0
 21
862.5
 31
0.0
1001
VD_XPROPERTIES
  0
TEXT
  8
TEXT
  5
486
 10
6920.0
 20
3262.5
 30
0.0
 40
100.0
  1
FLOOD PROFILES
 50
90.0
 72
     1
 11
6920.0
 21
3262.5
 31
0.0
1001
VD_XPROPERTIES
  0
TEXT
  8
TEXT
  5
487
 10
7150.0
 20
3262.5
 30
0.0
 40
80.0
  1
RUSSELL GULCH
 50
90.0
 72
     1
 11
7150.0
 21
3262.5
 31
0.0
1001
VD_XPROPERTIES
  0
TEXT
  8
TEXT
  5
488
 10
7000.0
 20
-225.0
 30
0.0
 40
100.0
  1
01P
 72
     1
 11
7000.0
 21
-225.0
 31
0.0
1001
VD_XPROPERTIES
  0
POLYLINE
  8
WS100
 62
     1
  5
489
 66
     1
 10
0.0
 20
0.0
 30
0.0
1001
VDEXTRAPARAM
1071
        0
1071
        0
1071
        0
1040
1.0
1000

1000

1001
VD_XPROPERTIES
  0
VERTEX
  8
WS100
 62
     1
  5
48A
 10
1206.0
 20
1704.999
 30
0.0
  0
VERTEX
  8
WS100
 62
     1
  5
48B
 10
1643.8
 20
1865.503
 30
0.0
  0
VERTEX
  8
WS100
 62
     1
  5
48C
 10
1643.8
 20
1865.503
 30
0.0
  0
VERTEX
  8
WS100
 62
     1
  5
48D
 10
1652.3
 20
1870.502
 30
0.0
  0
VERTEX
  8
WS100
 62
     1
  5
48E
 10
1652.3
 20
1870.502
 30
0.0
  0
VERTEX
  8
WS100
 62
     1
  5
48F
 10
1660.3
 20
1871.997
 30
0.0
  0
VERTEX
  8
WS100
 62
     1
  5
490
 10
1660.3
 20
1871.997
 30
0.0
  0
VERTEX
  8
WS100
 62
     1
  5
491
 10
1663.3
 20
1873.749
 30
0.0
  0
VERTEX
  8
WS100
 62
     1
  5
492
 10
1663.3
 20
1873.749
 30
0.0
  0
VERTEX
  8
WS100
 62
     1
  5
493
 10
1917.2
 20
1997.748
 30
0.0
  0
VERTEX
  8
WS100
 62
     1
  5
494
 10
1917.2
 20
1997.748
 30
0.0
  0
VERTEX
  8
WS100
 62
     1
  5
495
 10
1920.45
 20
2034.021
 30
0.0
  0
VERTEX
  8
WS100
 62
     1
  5
496
 10
1920.45
 20
2034.021
 30
0.0
  0
VERTEX
  8
WS100
 62
     1
  5
497
 10
2066.4
 20
2036.249
 30
0.0
  0
VERTEX
  8
WS100
 62
     1
  5
498
 10
2066.4
 20
2036.249
 30
0.0
  0
VERTEX
  8
WS100
 62
     1
  5
499
 10
2070.2
 20
2036.249
 30
0.0
  0
VERTEX
  8
WS100
 62
     1
  5
49A
 10
2070.2
 20
2036.249
 30
0.0
  0
VERTEX
  8
WS100
 62
     1
  5
49B
 10
2222.9
 20
2040.002
 30
0.0
  0
VERTEX
  8
WS100
 62
     1
  5
49C
 10
2222.9
 20
2040.002
 30
0.0
  0
VERTEX
  8
WS100
 62
     1
  5
49D
 10
2545.3
 20
2071.252
 30
0.0
  0
VERTEX
  8
WS100
 62
     1
  5
49E
 10
2545.3
 20
2071.252
 30
0.0
  0
VERTEX
  8
WS100
 62
     1
  5
49F
 10
2893.7
 20
2203.748
 30
0.0
  0
VERTEX
  8
WS100
 62
     1
  5
4A0
 10
2893.7
 20
2203.748
 30
0.0
  0
VERTEX
  8
WS100
 62
     1
  5
4A1
 10
2936.2
 20
2212.0
 30
0.0
  0
VERTEX
  8
WS100
 62
     1
  5
4A2
 10
2936.2
 20
2212.0
 30
0.0
  0
VERTEX
  8
WS100
 62
     1
  5
4A3
 10
2940.2
 20
2212.75
 30
0.0
  0
VERTEX
  8
WS100
 62
     1
  5
4A4
 10
2940.2
 20
2212.75
 30
0.0
  0
VERTEX
  8
WS100
 62
     1
  5
4A5
 10
2979.0
 20
2212.75
 30
0.0
  0
VERTEX
  8
WS100
 62
     1
  5
4A6
 10
2979.0
 20
2212.75
 30
0.0
  0
VERTEX
  8
WS100
 62
     1
  5
4A7
 10
2980.0
 20
2212.75
 30
0.0
  0
VERTEX
  8
WS100
 62
     1
  5
4A8
 10
2980.0
 20
2212.75
 30
0.0
  0
VERTEX
  8
WS100
 62
     1
  5
4A9
 10
3026.7
 20
2233.502
 30
0.0
  0
VERTEX
  8
WS100
 62
     1
  5
4AA
 10
3026.7
 20
2233.502
 30
0.0
  0
VERTEX
  8
WS100
 62
     1
  5
4AB
 10
3382.9
 20
2356.25
 30
0.0
  0
VERTEX
  8
WS100
 62
     1
  5
4AC
 10
3382.9
 20
2356.25
 30
0.0
  0
VERTEX
  8
WS100
 62
     1
  5
4AD
 10
3879.9
 20
2470.752
 30
0.0
  0
VERTEX
  8
WS100
 62
     1
  5
4AE
 10
3879.9
 20
2470.752
 30
0.0
  0
VERTEX
  8
WS100
 62
     1
  5
4AF
 10
4376.6
 20
2562.5
 30
0.0
  0
VERTEX
  8
WS100
 62
     1
  5
4B0
 10
4376.6
 20
2562.5
 30
0.0
  0
VERTEX
  8
WS100
 62
     1
  5
4B1
 10
4840.1
 20
2633.502
 30
0.0
  0
VERTEX
  8
WS100
 62
     1
  5
4B2
 10
4840.1
 20
2633.502
 30
0.0
  0
VERTEX
  8
WS100
 62
     1
  5
4B3
 10
5292.9
 20
2787.25
 30
0.0
  0
VERTEX
  8
WS100
 62
     1
  5
4B4
 10
5292.9
 20
2787.25
 30
0.0
  0
VERTEX
  8
WS100
 62
     1
  5
4B5
 10
5811.9
 20
2978.247
 30
0.0
  0
VERTEX
  8
WS100
 62
     1
  5
4B6
 10
5811.9
 20
2978.247
 30
0.0
  0
VERTEX
  8
WS100
 62
     1
  5
4B7
 10
6324.0
 20
3085.748
 30
0.0
  0
VERTEX
  8
WS100
 62
     1
  5
4B8
 10
6500.0
 20
3142.725
 30
0.0
  0
VERTEX
  8
WS100
 62
     1
  5
4B9
 10
6500.0
 20
3142.725
 30
0.0
  0
VERTEX
  8
WS100
 62
     1
  5
4BA
 10
6500.0
 20
3142.725
 30
0.0
  0
SEQEND
  8
0
  5
4BB
  0
INSERT
  8
ROCK
 62
     1
  5
4BC
  2
ROCK
 10
1206.0
 20
1599.249
 30
0.0
 41
500.0
 42
500.0
 50
17.67412
1001
VD_XPROPERTIES
  0
INSERT
  8
ROCK
 62
     1
  5
4BD
  2
ROCK
 10
3382.9
 20
2213.251
 30
0.0
 41
500.0
 42
500.0
 50
7.309533
1001
VD_XPROPERTIES
  0
INSERT
  8
ROCK
 62
     1
  5
4BE
  2
ROCK
 10
3879.9
 20
2277.002
 30
0.0
 41
500.0
 42
500.0
 50
20.07291
1001
VD_XPROPERTIES
  0
POLYLINE
  8
STREAM
 62
     1
  5
4BF
 66
     1
 10
0.0
 20
0.0
 30
0.0
1001
VDEXTRAPARAM
1071
        0
1071
        0
1071
        0
1040
1.0
1000

1000

1001
VD_XPROPERTIES
  0
VERTEX
  8
STREAM
 62
     1
  5
4C0
 10
1206.0
 20
1599.249
 30
0.0
  0
VERTEX
  8
STREAM
 62
     1
  5
4C1
 10
1643.8
 20
1738.751
 30
0.0
  0
VERTEX
  8
STREAM
 62
     1
  5
4C2
 10
1643.8
 20
1738.751
 30
0.0
  0
VERTEX
  8
STREAM
 62
     1
  5
4C3
 10
1652.3
 20
1738.751
 30
0.0
  0
VERTEX
  8
STREAM
 62
     1
  5
4C4
 10
1652.3
 20
1738.751
 30
0.0
  0
VERTEX
  8
STREAM
 62
     1
  5
4C5
 10
1660.3
 20
1738.751
 30
0.0
  0
VERTEX
  8
STREAM
 62
     1
  5
4C6
 10
1660.3
 20
1738.751
 30
0.0
  0
VERTEX
  8
STREAM
 62
     1
  5
4C7
 10
1663.3
 20
1738.751
 30
0.0
  0
VERTEX
  8
STREAM
 62
     1
  5
4C8
 10
1663.3
 20
1738.751
 30
0.0
  0
VERTEX
  8
STREAM
 62
     1
  5
4C9
 10
1917.2
 20
1825.0
 30
0.0
  0
VERTEX
  8
STREAM
 62
     1
  5
4CA
 10
1917.2
 20
1825.0
 30
0.0
  0
VERTEX
  8
STREAM
 62
     1
  5
4CB
 10
1920.45
 20
1834.998
 30
0.0
  0
VERTEX
  8
STREAM
 62
     1
  5
4CC
 10
1920.45
 20
1834.998
 30
0.0
  0
VERTEX
  8
STREAM
 62
     1
  5
4CD
 10
2066.4
 20
1867.499
 30
0.0
  0
VERTEX
  8
STREAM
 62
     1
  5
4CE
 10
2066.4
 20
1867.499
 30
0.0
  0
VERTEX
  8
STREAM
 62
     1
  5
4CF
 10
2070.2
 20
1852.753
 30
0.0
  0
VERTEX
  8
STREAM
 62
     1
  5
4D0
 10
2070.2
 20
1852.753
 30
0.0
  0
VERTEX
  8
STREAM
 62
     1
  5
4D1
 10
2222.9
 20
1870.001
 30
0.0
  0
VERTEX
  8
STREAM
 62
     1
  5
4D2
 10
2222.9
 20
1870.001
 30
0.0
  0
VERTEX
  8
STREAM
 62
     1
  5
4D3
 10
2545.3
 20
1912.5
 30
0.0
  0
VERTEX
  8
STREAM
 62
     1
  5
4D4
 10
2545.3
 20
1912.5
 30
0.0
  0
VERTEX
  8
STREAM
 62
     1
  5
4D5
 10
2893.7
 20
2004.248
 30
0.0
  0
VERTEX
  8
STREAM
 62
     1
  5
4D6
 10
2893.7
 20
2004.248
 30
0.0
  0
VERTEX
  8
STREAM
 62
     1
  5
4D7
 10
2936.2
 20
2044.25
 30
0.0
  0
VERTEX
  8
STREAM
 62
     1
  5
4D8
 10
2936.2
 20
2044.25
 30
0.0
  0
VERTEX
  8
STREAM
 62
     1
  5
4D9
 10
2940.2
 20
2034.998
 30
0.0
  0
VERTEX
  8
STREAM
 62
     1
  5
4DA
 10
2940.2
 20
2034.998
 30
0.0
  0
VERTEX
  8
STREAM
 62
     1
  5
4DB
 10
2979.0
 20
2042.499
 30
0.0
  0
VERTEX
  8
STREAM
 62
     1
  5
4DC
 10
2979.0
 20
2042.499
 30
0.0
  0
VERTEX
  8
STREAM
 62
     1
  5
4DD
 10
2980.0
 20
2044.25
 30
0.0
  0
VERTEX
  8
STREAM
 62
     1
  5
4DE
 10
2980.0
 20
2044.25
 30
0.0
  0
VERTEX
  8
STREAM
 62
     1
  5
4DF
 10
3026.7
 20
2110.248
 30
0.0
  0
VERTEX
  8
STREAM
 62
     1
  5
4E0
 10
3026.7
 20
2110.248
 30
0.0
  0
VERTEX
  8
STREAM
 62
     1
  5
4E1
 10
3382.9
 20
2213.251
 30
0.0
  0
VERTEX
  8
STREAM
 62
     1
  5
4E2
 10
3382.9
 20
2213.251
 30
0.0
  0
VERTEX
  8
STREAM
 62
     1
  5
4E3
 10
3879.9
 20
2277.002
 30
0.0
  0
VERTEX
  8
STREAM
 62
     1
  5
4E4
 10
3879.9
 20
2277.002
 30
0.0
  0
VERTEX
  8
STREAM
 62
     1
  5
4E5
 10
4376.6
 20
2458.502
 30
0.0
  0
VERTEX
  8
STREAM
 62
     1
  5
4E6
 10
4376.6
 20
2458.502
 30
0.0
  0
VERTEX
  8
STREAM
 62
     1
  5
4E7
 10
4840.1
 20
2557.251
 30
0.0
  0
VERTEX
  8
STREAM
 62
     1
  5
4E8
 10
4840.1
 20
2557.251
 30
0.0
  0
VERTEX
  8
STREAM
 62
     1
  5
4E9
 10
5292.9
 20
2566.748
 30
0.0
  0
VERTEX
  8
STREAM
 62
     1
  5
4EA
 10
5292.9
 20
2566.748
 30
0.0
  0
VERTEX
  8
STREAM
 62
     1
  5
4EB
 10
5811.9
 20
2734.253
 30
0.0
  0
VERTEX
  8
STREAM
 62
     1
  5
4EC
 10
5811.9
 20
2734.253
 30
0.0
  0
VERTEX
  8
STREAM
 62
     1
  5
4ED
 10
6324.0
 20
2933.002
 30
0.0
  0
VERTEX
  8
STREAM
 62
     1
  5
4EE
 10
6500.0
 20
2972.717
 30
0.0
  0
VERTEX
  8
STREAM
 62
     1
  5
4EF
 10
6500.0
 20
2972.717
 30
0.0
  0
SEQEND
  8
0
  5
4F0
  0
INSERT
  8
XSEC
 62
     3
  5
4F1
  2
XSEC
 10
1206.0
 20
275.0
 30
0.0
 41
500.0
 42
500.0
1001
VD_XPROPERTIES
  0
TEXT
  8
TEXT
  5
4F2
 10
1206.0
 20
275.0
 30
0.0
 40
50.0
  1
A
 72
     1
 11
1206.0
 21
275.0
 31
0.0
 73
     2
1001
VD_XPROPERTIES
  0
INSERT
  8
XSEC
 62
     3
  5
4F3
  2
XSEC
 10
2070.2
 20
275.0
 30
0.0
 41
500.0
 42
500.0
1001
VD_XPROPERTIES
  0
TEXT
  8
TEXT
  5
4F4
 10
2070.2
 20
275.0
 30
0.0
 40
50.0
  1
B
 72
     1
 11
2070.2
 21
275.0
 31
0.0
 73
     2
1001
VD_XPROPERTIES
  0
INSERT
  8
XSEC
 62
     3
  5
4F5
  2
XSEC
 10
2545.3
 20
275.0
 30
0.0
 41
500.0
 42
500.0
1001
VD_XPROPERTIES
  0
TEXT
  8
TEXT
  5
4F6
 10
2545.3
 20
275.0
 30
0.0
 40
50.0
  1
C
 72
     1
 11
2545.3
 21
275.0
 31
0.0
 73
     2
1001
VD_XPROPERTIES
  0
INSERT
  8
XSEC
 62
     3
  5
4F7
  2
XSEC
 10
4840.1
 20
275.0
 30
0.0
 41
500.0
 42
500.0
1001
VD_XPROPERTIES
  0
TEXT
  8
TEXT
  5
4F8
 10
4840.1
 20
275.0
 30
0.0
 40
50.0
  1
D
 72
     1
 11
4840.1
 21
275.0
 31
0.0
 73
     2
1001
VD_XPROPERTIES
  0
INSERT
  8
XSEC
 62
     3
  5
4F9
  2
XSEC
 10
5811.9
 20
1275.0
 30
0.0
 41
500.0
 42
500.0
1001
VD_XPROPERTIES
  0
TEXT
  8
TEXT
  5
4FA
 10
5811.9
 20
1275.0
 30
0.0
 40
50.0
  1
E
 72
     1
 11
5811.9
 21
1275.0
 31
0.0
 73
     2
1001
VD_XPROPERTIES
  0
LINE
  8
BRIDGE
 62
     1
  5
4FB
 10
1656.3
 20
1935.706
 30
0.0
 11
1656.3
 21
1985.706
 31
0.0
1001
VD_XPROPERTIES
  0
INSERT
  8
BRIDGE
 62
     1
  5
4FC
  2
BAR
 10
1656.3
 20
1935.706
 30
0.0
 41
500.0
 42
500.0
1001
VD_XPROPERTIES
  0
INSERT
  8
BRIDGE
 62
     1
  5
4FD
  2
BAR
 10
1656.3
 20
1985.706
 30
0.0
 41
500.0
 42
500.0
1001
VD_XPROPERTIES
  0
POLYLINE
  8
CULVERT
  5
4FE
 66
     1
 10
0.0
 20
0.0
 30
0.0
1001
VDEXTRAPARAM
1071
       11
1071
        0
1071
      255
1040
50.0
1000
CULVERT
1000
 
1001
VD_XPROPERTIES
  0
VERTEX
  8
CULVERT
  5
4FF
 10
1920.45
 20
2084.998
 30
0.0
  0
VERTEX
  8
CULVERT
  5
500
 10
1920.45
 20
2346.814
 30
0.0
  0
VERTEX
  8
CULVERT
  5
501
 10
2066.4
 20
2349.042
 30
0.0
  0
VERTEX
  8
CULVERT
  5
502
 10
2066.4
 20
2117.499
 30
0.0
  0
VERTEX
  8
CULVERT
  5
503
 10
1920.45
 20
2084.998
 30
0.0
  0
SEQEND
  8
0
  5
504
  0
POLYLINE
  8
CULVERT
  5
506
 66
     1
 10
0.0
 20
0.0
 30
0.0
1001
VDEXTRAPARAM
1071
       11
1071
        0
1071
      255
1040
50.0
1000
CULVERT
1000
 
1001
VD_XPROPERTIES
  0
VERTEX
  8
CULVERT
  5
507
 10
2940.2
 20
2159.998
 30
0.0
  0
VERTEX
  8
CULVERT
  5
508
 10
2940.2
 20
2218.75
 30
0.0
  0
VERTEX
  8
CULVERT
  5
509
 10
2979.0
 20
2218.75
 30
0.0
  0
VERTEX
  8
CULVERT
  5
50A
 10
2979.0
 20
2167.499
 30
0.0
  0
VERTEX
  8
CULVERT
  5
50B
 10
2940.2
 20
2159.998
 30
0.0
  0
SEQEND
  8
0
  5
50C
  0
POLYLINE
  8
XSECTEXTLINE
  5
50E
 66
     1
 10
0.0
 20
0.0
 30
0.0
1001
VDEXTRAPARAM
1071
        0
1071
        0
1071
        0
1040
1.0
1000

1000

1001
VD_XPROPERTIES
  0
VERTEX
  8
XSECTEXTLINE
  5
50F
 10
1660.3
 20
3600.0
 30
0.0
  0
VERTEX
  8
XSECTEXTLINE
  5
510
 10
1660.3
 20
4100.0
 30
0.0
  0
VERTEX
  8
XSECTEXTLINE
  5
511
 10
1660.3
 20
4100.0
 30
0.0
  0
SEQEND
  8
0
  5
512
  0
TEXT
  8
TEXT
  5
513
 10
1635.3
 20
3850.0
 30
0.0
 40
60.0
  1
SOUTHERN PACIFIC RAILROAD
 50
90.0
 72
     1
 11
1635.3
 21
3850.0
 31
0.0
1001
VD_XPROPERTIES
  0
POLYLINE
  8
XSECTEXTLINE
  5
514
 66
     1
 10
0.0
 20
0.0
 30
0.0
1001
VDEXTRAPARAM
1071
        0
1071
        0
1071
        0
1040
1.0
1000

1000

1001
VD_XPROPERTIES
  0
VERTEX
  8
XSECTEXTLINE
  5
515
 10
2066.4
 20
3600.0
 30
0.0
  0
VERTEX
  8
XSECTEXTLINE
  5
516
 10
2066.4
 20
4100.0
 30
0.0
  0
VERTEX
  8
XSECTEXTLINE
  5
517
 10
2066.4
 20
4100.0
 30
0.0
  0
SEQEND
  8
0
  5
518
  0
TEXT
  8
TEXT
  5
519
 10
2041.4
 20
3850.0
 30
0.0
 40
60.0
  1
US ROUTE 60/70
 50
90.0
 72
     1
 11
2041.4
 21
3850.0
 31
0.0
1001
VD_XPROPERTIES
  0
POLYLINE
  8
XSECTEXTLINE
  5
51A
 66
     1
 10
0.0
 20
0.0
 30
0.0
1001
VDEXTRAPARAM
1071
        0
1071
        0
1071
        0
1040
1.0
1000

1000

1001
VD_XPROPERTIES
  0
VERTEX
  8
XSECTEXTLINE
  5
51B
 10
2979.0
 20
3600.0
 30
0.0
  0
VERTEX
  8
XSECTEXTLINE
  5
51C
 10
2979.0
 20
4100.0
 30
0.0
  0
VERTEX
  8
XSECTEXTLINE
  5
51D
 10
2979.0
 20
4100.0
 30
0.0
  0
SEQEND
  8
0
  5
51E
  0
TEXT
  8
TEXT
  5
51F
 10
2954.0
 20
3349.058441
 30
0.0
 40
60.0
  1
HOSPITAL DRIVE
 50
90.0
 72
     1
 11
2954.0
 21
3349.058441
 31
0.0
1001
VD_XPROPERTIES
  0
POLYLINE
  8
LANDMARKLINE
  5
520
 66
     1
 10
0.0
 20
0.0
 30
0.0
1001
VDEXTRAPARAM
1071
        0
1071
        0
1071
        0
1040
1.0
1000

1000

1001
VD_XPROPERTIES
  0
VERTEX
  8
LANDMARKLINE
  5
521
 10
210.0
 20
3600.0
 30
0.0
  0
VERTEX
  8
LANDMARKLINE
  5
522
 10
210.0
 20
4100.0
 30
0.0
  0
VERTEX
  8
LANDMARKLINE
  5
523
 10
210.0
 20
4100.0
 30
0.0
  0
SEQEND
  8
0
  5
524
  0
TEXT
  8
TEXT
  5
525
 10
185.0
 20
3850.0
 30
0.0
 40
60.0
  1
RACUS ROAD
 50
90.0
 72
     1
 11
185.0
 21
3850.0
 31
0.0
1001
VD_XPROPERTIES
  0
POLYLINE
  8
LANDMARKLINE
  5
526
 66
     1
 10
0.0
 20
0.0
 30
0.0
1001
VDEXTRAPARAM
1071
        0
1071
        0
1071
        0
1040
1.0
1000

1000

1001
VD_XPROPERTIES
  0
VERTEX
  8
LANDMARKLINE
  5
527
 10
1000.0
 20
3600.0
 30
0.0
  0
VERTEX
  8
LANDMARKLINE
  5
528
 10
1000.0
 20
4100.0
 30
0.0
  0
VERTEX
  8
LANDMARKLINE
  5
529
 10
1000.0
 20
4100.0
 30
0.0
  0
SEQEND
  8
0
  5
52A
  0
TEXT
  8
TEXT
  5
52B
 10
975.0
 20
3850.0
 30
0.0
 40
60.0
  1
MINE ROAD
 50
90.0
 72
     1
 11
975.0
 21
3850.0
 31
0.0
1001
VD_XPROPERTIES
  0
POLYLINE
  8
LANDMARKLINE
  5
52C
 66
     1
 10
0.0
 20
0.0
 30
0.0
1001
VDEXTRAPARAM
1071
        0
1071
        0
1071
        0
1040
1.0
1000

1000

1001
VD_XPROPERTIES
  0
VERTEX
  8
LANDMARKLINE
  5
52D
 10
2979.0
 20
3099.058441
 30
0.0
  0
VERTEX
  8
LANDMARKLINE
  5
52E
 10
2979.0
 20
3599.058441
 30
0.0
  0
VERTEX
  8
LANDMARKLINE
  5
52F
 10
2979.0
 20
3599.058441
 30
0.0
  0
SEQEND
  8
0
  5
530
  0
TEXT
  8
TEXT
  5
531
 10
2954.0
 20
3850.0
 30
0.0
 40
60.0
  1
GILA COUNTY
 50
90.0
 72
     1
 11
2954.0
 21
3850.0
 31
0.0
1001
VD_XPROPERTIES
  0
TEXT
  8
TEXT
  5
532
 10
3056.0
 20
3850.0
 30
0.0
 40
60.0
  1
CITY OF GLOBE
 50
90.0
 72
     1
 11
3056.0
 21
3850.0
 31
0.0
1001
VD_XPROPERTIES
  0
POLYLINE
  8
LANDMARKLINE
  5
533
 66
     1
 10
0.0
 20
0.0
 30
0.0
1001
VDEXTRAPARAM
1071
        0
1071
        0
1071
        0
1040
1.0
1000

1000

1001
VD_XPROPERTIES
  0
VERTEX
  8
LANDMARKLINE
  5
534
 10
3856.0
 20
3600.0
 30
0.0
  0
VERTEX
  8
LANDMARKLINE
  5
535
 10
3856.0
 20
4100.0
 30
0.0
  0
VERTEX
  8
LANDMARKLINE
  5
536
 10
3856.0
 20
4100.0
 30
0.0
  0
SEQEND
  8
0
  5
537
  0
TEXT
  8
TEXT
  5
538
 10
3831.0
 20
3850.0
 30
0.0
 40
60.0
  1
CITY OF GLOBE
 50
90.0
 72
     1
 11
3831.0
 21
3850.0
 31
0.0
1001
VD_XPROPERTIES
  0
TEXT
  8
TEXT
  5
539
 10
3931.0
 20
3850.0
 30
0.0
 40
60.0
  1
GILA COUNTY
 50
90.0
 72
     1
 11
3931.0
 21
3850.0
 31
0.0
1001
VD_XPROPERTIES
  0
POLYLINE
  8
LANDMARKLINE
  5
53A
 66
     1
 10
0.0
 20
0.0
 30
0.0
1001
VDEXTRAPARAM
1071
        0
1071
        0
1071
        0
1040
1.0
1000

1000

1001
VD_XPROPERTIES
  0
VERTEX
  8
LANDMARKLINE
  5
53B
 10
5206.0
 20
3600.0
 30
0.0
  0
VERTEX
  8
LANDMARKLINE
  5
53C
 10
5206.0
 20
4100.0
 30
0.0
  0
VERTEX
  8
LANDMARKLINE
  5
53D
 10
5206.0
 20
4100.0
 30
0.0
  0
SEQEND
  8
0
  5
53E
  0
TEXT
  8
TEXT
  5
53F
 10
5181.0
 20
3850.0
 30
0.0
 40
60.0
  1
CONFLUENCE OF ROBERTS WASH
 50
90.0
 72
     1
 11
5181.0
 21
3850.0
 31
0.0
1001
VD_XPROPERTIES
  0
POLYLINE
  8
LANDMARKLINE
  5
540
 66
     1
 10
0.0
 20
0.0
 30
0.0
1001
VDEXTRAPARAM
1071
        0
1071
        0
1071
        0
1040
1.0
1000

1000

1001
VD_XPROPERTIES
  0
VERTEX
  8
LANDMARKLINE
  5
541
 10
5636.0
 20
3600.0
 30
0.0
  0
VERTEX
  8
LANDMARKLINE
  5
542
 10
5636.0
 20
4100.0
 30
0.0
  0
VERTEX
  8
LANDMARKLINE
  5
543
 10
5636.0
 20
4100.0
 30
0.0
  0
SEQEND
  8
0
  5
544
  0
TEXT
  8
TEXT
  5
545
 10
5611.0
 20
3850.0
 30
0.0
 40
60.0
  1
CONFLUENCE OF WATERTANK WASH
 50
90.0
 72
     1
 11
5611.0
 21
3850.0
 31
0.0
1001
VD_XPROPERTIES
  0
TEXT
  8
TEXT
  5
546
 10
50.0
 20
3850.0
 30
0.0
 40
60.0
  1
CONFLUENCE WITH BLOODY TANKS WASH
 50
90.0
 72
     1
 11
50.0
 21
3850.0
 31
0.0
1001
VD_XPROPERTIES
  0
POLYLINE
  8
LEGEND_BOX
  5
547
 66
     1
 10
0.0
 20
0.0
 30
0.0
1001
VDEXTRAPARAM
1071
        0
1071
        0
1071
        0
1040
1.0
1000

1000

1001
VD_XPROPERTIES
  0
VERTEX
  8
LEGEND_BOX
  5
548
 10
5025.0
 20
1075.0
 30
0.0
  0
VERTEX
  8
LEGEND_BOX
  5
549
 10
5025.0
 20
125.0
 30
0.0
  0
VERTEX
  8
LEGEND_BOX
  5
54A
 10
6475.0
 20
125.0
 30
0.0
  0
VERTEX
  8
LEGEND_BOX
  5
54B
 10
6475.0
 20
1075.0
 30
0.0
  0
VERTEX
  8
LEGEND_BOX
  5
54C
 10
5025.0
 20
1075.0
 30
0.0
  0
VERTEX
  8
LEGEND_BOX
  5
54D
 10
5025.0
 20
1075.0
 30
0.0
  0
SEQEND
  8
0
  5
54E
  0
TEXT
  8
TEXT
  5
54F
 10
5775.0
 20
975.0
 30
0.0
 40
50.0
  1
LEGEND
 72
     1
 11
5775.0
 21
975.0
 31
0.0
1001
VD_XPROPERTIES
  0
POLYLINE
  8
WS500
 62
     3
  5
550
 66
     1
 10
0.0
 20
0.0
 30
0.0
1001
VDEXTRAPARAM
1071
        0
1071
        0
1071
        0
1040
1.0
1000

1000

1001
VD_XPROPERTIES
  0
VERTEX
  8
WS500
 62
     3
  5
551
 10
5150.0
 20
900.0
 30
0.0
  0
VERTEX
  8
WS500
 62
     3
  5
552
 10
5700.0
 20
900.0
 30
0.0
  0
VERTEX
  8
WS500
 62
     3
  5
553
 10
5700.0
 20
900.0
 30
0.0
  0
SEQEND
  8
0
  5
554
  0
TEXT
  8
TEXT
  5
555
 10
5825.0
 20
875.0
 30
0.0
 40
50.0
  1
500-YEAR FLOOD
1001
VD_XPROPERTIES
  0
POLYLINE
  8
WS100
 62
     1
  5
556
 66
     1
 10
0.0
 20
0.0
 30
0.0
1001
VDEXTRAPARAM
1071
        0
1071
        0
1071
        0
1040
1.0
1000

1000

1001
VD_XPROPERTIES
  0
VERTEX
  8
WS100
 62
     1
  5
557
 10
5150.0
 20
775.0
 30
0.0
  0
VERTEX
  8
WS100
 62
     1
  5
558
 10
5700.0
 20
775.0
 30
0.0
  0
VERTEX
  8
WS100
 62
     1
  5
559
 10
5700.0
 20
775.0
 30
0.0
  0
SEQEND
  8
0
  5
55A
  0
TEXT
  8
TEXT
  5
55B
 10
5825.0
 20
750.0
 30
0.0
 40
50.0
  1
100-YEAR FLOOD
1001
VD_XPROPERTIES
  0
POLYLINE
  8
WS50
 62
     5
  5
55C
 66
     1
 10
0.0
 20
0.0
 30
0.0
1001
VDEXTRAPARAM
1071
        0
1071
        0
1071
        0
1040
1.0
1000

1000

1001
VD_XPROPERTIES
  0
VERTEX
  8
WS50
 62
     5
  5
55D
 10
5150.0
 20
650.0
 30
0.0
  0
VERTEX
  8
WS50
 62
     5
  5
55E
 10
5700.0
 20
650.0
 30
0.0
  0
VERTEX
  8
WS50
 62
     5
  5
55F
 10
5700.0
 20
650.0
 30
0.0
  0
SEQEND
  8
0
  5
560
  0
TEXT
  8
TEXT
  5
561
 10
5825.0
 20
625.0
 30
0.0
 40
50.0
  1
50-YEAR FLOOD
1001
VD_XPROPERTIES
  0
POLYLINE
  8
WS10
 62
     6
  5
562
 66
     1
 10
0.0
 20
0.0
 30
0.0
1001
VDEXTRAPARAM
1071
        0
1071
        0
1071
        0
1040
1.0
1000

1000

1001
VD_XPROPERTIES
  0
VERTEX
  8
WS10
 62
     6
  5
563
 10
5150.0
 20
525.0
 30
0.0
  0
VERTEX
  8
WS10
 62
     6
  5
564
 10
5700.0
 20
525.0
 30
0.0
  0
VERTEX
  8
WS10
 62
     6
  5
565
 10
5700.0
 20
525.0
 30
0.0
  0
SEQEND
  8
0
  5
566
  0
TEXT
  8
TEXT
  5
567
 10
5825.0
 20
500.0
 30
0.0
 40
50.0
  1
10-YEAR FLOOD
1001
VD_XPROPERTIES
  0
POLYLINE
  8
STREAM
 62
     1
  5
568
 66
     1
 10
0.0
 20
0.0
 30
0.0
1001
VDEXTRAPARAM
1071
        0
1071
        0
1071
        0
1040
1.0
1000

1000

1001
VD_XPROPERTIES
  0
VERTEX
  8
STREAM
 62
     1
  5
569
 10
5150.0
 20
425.0
 30
0.0
  0
VERTEX
  8
STREAM
 62
     1
  5
56A
 10
5700.0
 20
425.0
 30
0.0
  0
VERTEX
  8
STREAM
 62
     1
  5
56B
 10
5700.0
 20
425.0
 30
0.0
  0
SEQEND
  8
0
  5
56C
  0
TEXT
  8
TEXT
  5
56D
 10
5825.0
 20
375.0
 30
0.0
 40
50.0
  1
STREAM BED
1001
VD_XPROPERTIES
  0
INSERT
  8
ROCK
 62
     1
  5
56E
  2
ROCK
 10
5150.0
 20
424.4995
 30
0.0
 41
500.0
 42
500.0
1001
VD_XPROPERTIES
  0
TEXT
  8
TEXT
  5
56F
 10
5825.0
 20
250.0
 30
0.0
 40
50.0
  1
CROSS SECTION
1001
VD_XPROPERTIES
  0
TEXT
  8
TEXT
  5
570
 10
5830.0
 20
191.6687
 30
0.0
 40
50.0
  1
LOCATION
1001
VD_XPROPERTIES
  0
POLYLINE
  8
LEGEND_XSEC
  5
571
 66
     1
 10
0.0
 20
0.0
 30
0.0
1001
VDEXTRAPARAM
1071
        0
1071
        0
1071
        0
1040
1.0
1000

1000

1001
VD_XPROPERTIES
  0
VERTEX
  8
LEGEND_XSEC
  5
572
 10
5425.0
 20
300.0
 30
0.0
  0
VERTEX
  8
LEGEND_XSEC
  5
573
 10
5360.048
 20
262.5
 30
0.0
  0
VERTEX
  8
LEGEND_XSEC
  5
574
 10
5360.048
 20
187.5
 30
0.0
  0
VERTEX
  8
LEGEND_XSEC
  5
575
 10
5425.0
 20
150.0
 30
0.0
  0
VERTEX
  8
LEGEND_XSEC
  5
576
 10
5489.952
 20
187.5
 30
0.0
  0
VERTEX
  8
LEGEND_XSEC
  5
577
 10
5489.952
 20
262.5
 30
0.0
  0
VERTEX
  8
LEGEND_XSEC
  5
578
 10
5425.0
 20
300.0
 30
0.0
  0
VERTEX
  8
LEGEND_XSEC
  5
579
 10
5425.0
 20
325.0
 30
0.0
  0
VERTEX
  8
LEGEND_XSEC
  5
57A
 10
5425.0
 20
325.0
 30
0.0
  0
SEQEND
  8
0
  5
57B
  0
INSERT
  8
GRIDS
  5
57C
  2
BORDER
 10
10000.0
 20
100.0
 30
0.0
 41
500.0
 42
500.0
1001
VD_XPROPERTIES
  0
TEXT
  8
TEXT
  5
57D
 10
9830.0
 20
77.5
 30
0.0
 40
60.0
  1
 3320
1001
VD_XPROPERTIES
  0
TEXT
  8
TEXT
  5
57E
 10
9830.0
 20
577.5
 30
0.0
 40
60.0
  1
 3340
1001
VD_XPROPERTIES
  0
TEXT
  8
TEXT
  5
57F
 10
9830.0
 20
1077.5
 30
0.0
 40
60.0
  1
 3360
1001
VD_XPROPERTIES
  0
TEXT
  8
TEXT
  5
580
 10
16555.0
 20
1077.5
 30
0.0
 40
60.0
  1
 3360
1001
VD_XPROPERTIES
  0
TEXT
  8
TEXT
  5
581
 10
9830.0
 20
1577.5
 30
0.0
 40
60.0
  1
 3380
1001
VD_XPROPERTIES
  0
TEXT
  8
TEXT
  5
582
 10
16555.0
 20
1577.5
 30
0.0
 40
60.0
  1
 3380
1001
VD_XPROPERTIES
  0
TEXT
  8
TEXT
  5
583
 10
9830.0
 20
2077.5
 30
0.0
 40
60.0
  1
 3400
1001
VD_XPROPERTIES
  0
TEXT
  8
TEXT
  5
584
 10
16555.0
 20
2077.5
 30
0.0
 40
60.0
  1
 3400
1001
VD_XPROPERTIES
  0
TEXT
  8
TEXT
  5
585
 10
9830.0
 20
2577.5
 30
0.0
 40
60.0
  1
 3420
1001
VD_XPROPERTIES
  0
TEXT
  8
TEXT
  5
586
 10
16555.0
 20
2577.5
 30
0.0
 40
60.0
  1
 3420
1001
VD_XPROPERTIES
  0
TEXT
  8
TEXT
  5
587
 10
9830.0
 20
3077.5
 30
0.0
 40
60.0
  1
 3440
1001
VD_XPROPERTIES
  0
TEXT
  8
TEXT
  5
588
 10
16555.0
 20
3077.5
 30
0.0
 40
60.0
  1
 3440
1001
VD_XPROPERTIES
  0
TEXT
  8
TEXT
  5
589
 10
9830.0
 20
3577.5
 30
0.0
 40
60.0
  1
 3460
1001
VD_XPROPERTIES
  0
TEXT
  8
TEXT
  5
58A
 10
16555.0
 20
3577.5
 30
0.0
 40
60.0
  1
 3460
1001
VD_XPROPERTIES
  0
TEXT
  8
TEXT
  5
58B
 10
9830.0
 20
4077.5
 30
0.0
 40
60.0
  1
 3480
1001
VD_XPROPERTIES
  0
TEXT
  8
TEXT
  5
58C
 10
16555.0
 20
4077.5
 30
0.0
 40
60.0
  1
 3480
1001
VD_XPROPERTIES
  0
TEXT
  8
TEXT
  5
58D
 10
9830.0
 20
4577.5
 30
0.0
 40
60.0
  1
 3500
1001
VD_XPROPERTIES
  0
TEXT
  8
TEXT
  5
58E
 10
16555.0
 20
4577.5
 30
0.0
 40
60.0
  1
 3500
1001
VD_XPROPERTIES
  0
TEXT
  8
TEXT
  5
58F
 10
10004.0
 20
0.001
 30
0.0
 40
60.0
  1
6500
 72
     1
 11
10004.0
 21
0.001
 31
0.0
1001
VD_XPROPERTIES
  0
TEXT
  8
TEXT
  5
590
 10
10504.0
 20
0.001
 30
0.0
 40
60.0
  1
7000
 72
     1
 11
10504.0
 21
0.001
 31
0.0
1001
VD_XPROPERTIES
  0
TEXT
  8
TEXT
  5
591
 10
11004.0
 20
0.001
 30
0.0
 40
60.0
  1
7500
 72
     1
 11
11004.0
 21
0.001
 31
0.0
1001
VD_XPROPERTIES
  0
TEXT
  8
TEXT
  5
592
 10
11504.0
 20
0.001
 30
0.0
 40
60.0
  1
8000
 72
     1
 11
11504.0
 21
0.001
 31
0.0
1001
VD_XPROPERTIES
  0
TEXT
  8
TEXT
  5
593
 10
12004.0
 20
0.001
 30
0.0
 40
60.0
  1
8500
 72
     1
 11
12004.0
 21
0.001
 31
0.0
1001
VD_XPROPERTIES
  0
TEXT
  8
TEXT
  5
594
 10
12504.0
 20
0.001
 30
0.0
 40
60.0
  1
9000
 72
     1
 11
12504.0
 21
0.001
 31
0.0
1001
VD_XPROPERTIES
  0
TEXT
  8
TEXT
  5
595
 10
13004.0
 20
0.001
 30
0.0
 40
60.0
  1
9500
 72
     1
 11
13004.0
 21
0.001
 31
0.0
1001
VD_XPROPERTIES
  0
TEXT
  8
TEXT
  5
596
 10
13503.5
 20
0.001
 30
0.0
 40
60.0
  1
10000
 72
     1
 11
13503.5
 21
0.001
 31
0.0
1001
VD_XPROPERTIES
  0
TEXT
  8
TEXT
  5
597
 10
14003.5
 20
0.001
 30
0.0
 40
60.0
  1
10500
 72
     1
 11
14003.5
 21
0.001
 31
0.0
1001
VD_XPROPERTIES
  0
TEXT
  8
TEXT
  5
598
 10
14503.5
 20
0.001
 30
0.0
 40
60.0
  1
11000
 72
     1
 11
14503.5
 21
0.001
 31
0.0
1001
VD_XPROPERTIES
  0
TEXT
  8
TEXT
  5
599
 10
15003.5
 20
0.001
 30
0.0
 40
60.0
  1
11500
 72
     1
 11
15003.5
 21
0.001
 31
0.0
1001
VD_XPROPERTIES
  0
TEXT
  8
TEXT
  5
59A
 10
15503.5
 20
0.001
 30
0.0
 40
60.0
  1
12000
 72
     1
 11
15503.5
 21
0.001
 31
0.0
1001
VD_XPROPERTIES
  0
TEXT
  8
TEXT
  5
59B
 10
16003.5
 20
0.001
 30
0.0
 40
60.0
  1
12500
 72
     1
 11
16003.5
 21
0.001
 31
0.0
1001
VD_XPROPERTIES
  0
TEXT
  8
TEXT
  5
59C
 10
16503.5
 20
0.001
 30
0.0
 40
60.0
  1
13000
 72
     1
 11
16503.5
 21
0.001
 31
0.0
1001
VD_XPROPERTIES
  0
TEXT
  8
TEXT
  5
59D
 10
9720.0
 20
2350.0
 30
0.0
 40
60.0
  1
ELEVATION IN FEET (NGVD)
 50
90.0
 72
     1
 11
9720.0
 21
2350.0
 31
0.0
1001
VD_XPROPERTIES
  0
TEXT
  8
TEXT
  5
59E
 10
13250.0
 20
-175.0
 30
0.0
 40
60.0
  1
STREAM DISTANCE IN FEET ABOVE CONFLUENCE WITH BLOODY TANKS WASH
 72
     1
 11
13250.0
 21
-175.0
 31
0.0
1001
VD_XPROPERTIES
  0
TEXT
  8
TEXT
  5
59F
 10
16875.0
 20
862.5
 30
0.0
 40
80.0
  1
FEDERAL EMERGENCY MANAGEMENT AGENCY
 50
90.0
 72
     1
 11
16875.0
 21
862.5
 31
0.0
1001
VD_XPROPERTIES
  0
TEXT
  8
TEXT
  5
5A0
 10
17050.0
 20
862.5
 30
0.0
 40
100.0
  1
GILA COUNTY, AZ
 50
90.0
 72
     1
 11
17050.0
 21
862.5
 31
0.0
1001
VD_XPROPERTIES
  0
TEXT
  8
TEXT
  5
5A1
 10
17175.0
 20
862.5
 30
0.0
 40
70.0
  1
(UNINCORPORATED AREAS)
 50
90.0
 72
     1
 11
17175.0
 21
862.5
 31
0.0
1001
VD_XPROPERTIES
  0
TEXT
  8
TEXT
  5
5A2
 10
16920.0
 20
3262.5
 30
0.0
 40
100.0
  1
FLOOD PROFILES
 50
90.0
 72
     1
 11
16920.0
 21
3262.5
 31
0.0
1001
VD_XPROPERTIES
  0
TEXT
  8
TEXT
  5
5A3
 10
17150.0
 20
3262.5
 30
0.0
 40
80.0
  1
RUSSELL GULCH
 50
90.0
 72
     1
 11
17150.0
 21
3262.5
 31
0.0
1001
VD_XPROPERTIES
  0
TEXT
  8
TEXT
  5
5A4
 10
17000.0
 20
-225.0
 30
0.0
 40
100.0
  1
02P
 72
     1
 11
17000.0
 21
-225.0
 31
0.0
1001
VD_XPROPERTIES
  0
POLYLINE
  8
WS100
 62
     1
  5
5A5
 66
     1
 10
0.0
 20
0.0
 30
0.0
1001
VDEXTRAPARAM
1071
        0
1071
        0
1071
        0
1040
1.0
1000

1000

1001
VD_XPROPERTIES
  0
VERTEX
  8
WS100
 62
     1
  5
5A6
 10
10000.0
 20
1142.725
 30
0.0
  0
VERTEX
  8
WS100
 62
     1
  5
5A7
 10
10305.9
 20
1241.748
 30
0.0
  0
VERTEX
  8
WS100
 62
     1
  5
5A8
 10
10305.9
 20
1241.748
 30
0.0
  0
VERTEX
  8
WS100
 62
     1
  5
5A9
 10
10764.9
 20
1392.749
 30
0.0
  0
VERTEX
  8
WS100
 62
     1
  5
5AA
 10
10764.9
 20
1392.749
 30
0.0
  0
VERTEX
  8
WS100
 62
     1
  5
5AB
 10
11306.1
 20
1533.252
 30
0.0
  0
VERTEX
  8
WS100
 62
     1
  5
5AC
 10
11306.1
 20
1533.252
 30
0.0
  0
VERTEX
  8
WS100
 62
     1
  5
5AD
 10
11778.0
 20
1772.498
 30
0.0
  0
VERTEX
  8
WS100
 62
     1
  5
5AE
 10
11778.0
 20
1772.498
 30
0.0
  0
VERTEX
  8
WS100
 62
     1
  5
5AF
 10
12293.0
 20
1928.003
 30
0.0
  0
VERTEX
  8
WS100
 62
     1
  5
5B0
 10
12293.0
 20
1928.003
 30
0.0
  0
VERTEX
  8
WS100
 62
     1
  5
5B1
 10
12597.2
 20
2015.997
 30
0.0
  0
VERTEX
  8
WS100
 62
     1
  5
5B2
 10
12597.2
 20
2015.997
 30
0.0
  0
VERTEX
  8
WS100
 62
     1
  5
5B3
 10
12808.2
 20
2100.751
 30
0.0
  0
VERTEX
  8
WS100
 62
     1
  5
5B4
 10
12808.2
 20
2100.751
 30
0.0
  0
VERTEX
  8
WS100
 62
     1
  5
5B5
 10
13019.2
 20
2194.25
 30
0.0
  0
VERTEX
  8
WS100
 62
     1
  5
5B6
 10
13019.2
 20
2194.25
 30
0.0
  0
VERTEX
  8
WS100
 62
     1
  5
5B7
 10
13426.1
 20
2326.752
 30
0.0
  0
VERTEX
  8
WS100
 62
     1
  5
5B8
 10
13426.1
 20
2326.752
 30
0.0
  0
VERTEX
  8
WS100
 62
     1
  5
5B9
 10
13758.9
 20
2439.001
 30
0.0
  0
VERTEX
  8
WS100
 62
     1
  5
5BA
 10
13758.9
 20
2439.001
 30
0.0
  0
VERTEX
  8
WS100
 62
     1
  5
5BB
 10
14251.1
 20
2621.503
 30
0.0
  0
VERTEX
  8
WS100
 62
     1
  5
5BC
 10
14251.1
 20
2621.503
 30
0.0
  0
VERTEX
  8
WS100
 62
     1
  5
5BD
 10
14759.5
 20
2797.498
 30
0.0
  0
VERTEX
  8
WS100
 62
     1
  5
5BE
 10
14759.5
 20
2797.498
 30
0.0
  0
VERTEX
  8
WS100
 62
     1
  5
5BF
 10
15169.0
 20
2901.501
 30
0.0
  0
VERTEX
  8
WS100
 62
     1
  5
5C0
 10
15169.0
 20
2901.501
 30
0.0
  0
VERTEX
  8
WS100
 62
     1
  5
5C1
 10
15656.7
 20
3084.003
 30
0.0
  0
VERTEX
  8
WS100
 62
     1
  5
5C2
 10
15656.7
 20
3084.003
 30
0.0
  0
VERTEX
  8
WS100
 62
     1
  5
5C3
 10
16143.8
 20
3302.252
 30
0.0
  0
VERTEX
  8
WS100
 62
     1
  5
5C4
 10
16143.8
 20
3302.252
 30
0.0
  0
VERTEX
  8
WS100
 62
     1
  5
5C5
 10
16497.8
 20
3451.001
 30
0.0
  0
VERTEX
  8
WS100
 62
     1
  5
5C6
 10
16500.0
 20
3452.106
 30
0.0
  0
VERTEX
  8
WS100
 62
     1
  5
5C7
 10
16500.0
 20
3452.106
 30
0.0
  0
VERTEX
  8
WS100
 62
     1
  5
5C8
 10
16500.0
 20
3452.106
 30
0.0
  0
SEQEND
  8
0
  5
5C9
  0
INSERT
  8
ROCK
 62
     1
  5
5CA
  2
ROCK
 10
10305.9
 20
1041.748
 30
0.0
 41
500.0
 42
500.0
 50
17.98429
1001
VD_XPROPERTIES
  0
INSERT
  8
ROCK
 62
     1
  5
5CB
  2
ROCK
 10
10764.9
 20
1190.747
 30
0.0
 41
500.0
 42
500.0
 50
16.44577
1001
VD_XPROPERTIES
  0
INSERT
  8
ROCK
 62
     1
  5
5CC
  2
ROCK
 10
11306.1
 20
1350.5
 30
0.0
 41
500.0
 42
500.0
 50
21.48547
1001
VD_XPROPERTIES
  0
POLYLINE
  8
STREAM
 62
     1
  5
5CD
 66
     1
 10
0.0
 20
0.0
 30
0.0
1001
VDEXTRAPARAM
1071
        0
1071
        0
1071
        0
1040
1.0
1000

1000

1001
VD_XPROPERTIES
  0
VERTEX
  8
STREAM
 62
     1
  5
5CE
 10
10000.0
 20
972.7173
 30
0.0
  0
VERTEX
  8
STREAM
 62
     1
  5
5CF
 10
10305.9
 20
1041.748
 30
0.0
  0
VERTEX
  8
STREAM
 62
     1
  5
5D0
 10
10305.9
 20
1041.748
 30
0.0
  0
VERTEX
  8
STREAM
 62
     1
  5
5D1
 10
10764.9
 20
1190.747
 30
0.0
  0
VERTEX
  8
STREAM
 62
     1
  5
5D2
 10
10764.9
 20
1190.747
 30
0.0
  0
VERTEX
  8
STREAM
 62
     1
  5
5D3
 10
11306.1
 20
1350.5
 30
0.0
  0
VERTEX
  8
STREAM
 62
     1
  5
5D4
 10
11306.1
 20
1350.5
 30
0.0
  0
VERTEX
  8
STREAM
 62
     1
  5
5D5
 10
11778.0
 20
1536.249
 30
0.0
  0
VERTEX
  8
STREAM
 62
     1
  5
5D6
 10
11778.0
 20
1536.249
 30
0.0
  0
VERTEX
  8
STREAM
 62
     1
  5
5D7
 10
12293.0
 20
1690.253
 30
0.0
  0
VERTEX
  8
STREAM
 62
     1
  5
5D8
 10
12293.0
 20
1690.253
 30
0.0
  0
VERTEX
  8
STREAM
 62
     1
  5
5D9
 10
12597.2
 20
1763.0
 30
0.0
  0
VERTEX
  8
STREAM
 62
     1
  5
5DA
 10
12597.2
 20
1763.0
 30
0.0
  0
VERTEX
  8
STREAM
 62
     1
  5
5DB
 10
12808.2
 20
1856.5
 30
0.0
  0
VERTEX
  8
STREAM
 62
     1
  5
5DC
 10
12808.2
 20
1856.5
 30
0.0
  0
VERTEX
  8
STREAM
 62
     1
  5
5DD
 10
13019.2
 20
1948.248
 30
0.0
  0
VERTEX
  8
STREAM
 62
     1
  5
5DE
 10
13019.2
 20
1948.248
 30
0.0
  0
VERTEX
  8
STREAM
 62
     1
  5
5DF
 10
13426.1
 20
2060.248
 30
0.0
  0
VERTEX
  8
STREAM
 62
     1
  5
5E0
 10
13426.1
 20
2060.248
 30
0.0
  0
VERTEX
  8
STREAM
 62
     1
  5
5E1
 10
13758.9
 20
2234.998
 30
0.0
  0
VERTEX
  8
STREAM
 62
     1
  5
5E2
 10
13758.9
 20
2234.998
 30
0.0
  0
VERTEX
  8
STREAM
 62
     1
  5
5E3
 10
14251.1
 20
2392.749
 30
0.0
  0
VERTEX
  8
STREAM
 62
     1
  5
5E4
 10
14251.1
 20
2392.749
 30
0.0
  0
VERTEX
  8
STREAM
 62
     1
  5
5E5
 10
14759.5
 20
2544.25
 30
0.0
  0
VERTEX
  8
STREAM
 62
     1
  5
5E6
 10
14759.5
 20
2544.25
 30
0.0
  0
VERTEX
  8
STREAM
 62
     1
  5
5E7
 10
15169.0
 20
2659.497
 30
0.0
  0
VERTEX
  8
STREAM
 62
     1
  5
5E8
 10
15169.0
 20
2659.497
 30
0.0
  0
VERTEX
  8
STREAM
 62
     1
  5
5E9
 10
15656.7
 20
2884.497
 30
0.0
  0
VERTEX
  8
STREAM
 62
     1
  5
5EA
 10
15656.7
 20
2884.497
 30
0.0
  0
VERTEX
  8
STREAM
 62
     1
  5
5EB
 10
16143.8
 20
3093.75
 30
0.0
  0
VERTEX
  8
STREAM
 62
     1
  5
5EC
 10
16143.8
 20
3093.75
 30
0.0
  0
VERTEX
  8
STREAM
 62
     1
  5
5ED
 10
16497.8
 20
3256.25
 30
0.0
  0
VERTEX
  8
STREAM
 62
     1
  5
5EE
 10
16500.0
 20
3257.458
 30
0.0
  0
VERTEX
  8
STREAM
 62
     1
  5
5EF
 10
16500.0
 20
3257.458
 30
0.0
  0
SEQEND
  8
0
  5
5F0
  0
INSERT
  8
XSEC
 62
     3
  5
5F1
  2
XSEC
 10
10764.9
 20
275.0
 30
0.0
 41
500.0
 42
500.0
1001
VD_XPROPERTIES
  0
TEXT
  8
TEXT
  5
5F2
 10
10764.9
 20
275.0
 30
0.0
 40
50.0
  1
F
 72
     1
 11
10764.9
 21
275.0
 31
0.0
 73
     2
1001
VD_XPROPERTIES
  0
INSERT
  8
XSEC
 62
     3
  5
5F3
  2
XSEC
 10
11778.0
 20
275.0
 30
0.0
 41
500.0
 42
500.0
1001
VD_XPROPERTIES
  0
TEXT
  8
TEXT
  5
5F4
 10
11778.0
 20
275.0
 30
0.0
 40
50.0
  1
G
 72
     1
 11
11778.0
 21
275.0
 31
0.0
 73
     2
1001
VD_XPROPERTIES
  0
INSERT
  8
XSEC
 62
     3
  5
5F5
  2
XSEC
 10
13758.9
 20
275.0
 30
0.0
 41
500.0
 42
500.0
1001
VD_XPROPERTIES
  0
TEXT
  8
TEXT
  5
5F6
 10
13758.9
 20
275.0
 30
0.0
 40
50.0
  1
H
 72
     1
 11
13758.9
 21
275.0
 31
0.0
 73
     2
1001
VD_XPROPERTIES
  0
INSERT
  8
XSEC
 62
     3
  5
5F7
  2
XSEC
 10
15656.7
 20
1275.0
 30
0.0
 41
500.0
 42
500.0
1001
VD_XPROPERTIES
  0
TEXT
  8
TEXT
  5
5F8
 10
15656.7
 20
1275.0
 30
0.0
 40
50.0
  1
I
 72
     1
 11
15656.7
 21
1275.0
 31
0.0
 73
     2
1001
VD_XPROPERTIES
  0
POLYLINE
  8
LANDMARKLINE
  5
5F9
 66
     1
 10
0.0
 20
0.0
 30
0.0
1001
VDEXTRAPARAM
1071
        0
1071
        0
1071
        0
1040
1.0
1000

1000

1001
VD_XPROPERTIES
  0
VERTEX
  8
LANDMARKLINE
  5
5FA
 10
15906.0
 20
3600.0
 30
0.0
  0
VERTEX
  8
LANDMARKLINE
  5
5FB
 10
15906.0
 20
4100.0
 30
0.0
  0
VERTEX
  8
LANDMARKLINE
  5
5FC
 10
15906.0
 20
4100.0
 30
0.0
  0
SEQEND
  8
0
  5
5FD
  0
TEXT
  8
TEXT
  5
5FE
 10
15881.0
 20
3850.0
 30
0.0
 40
60.0
  1
CONFLUENCE OF COYOTE WASH
 50
90.0
 72
     1
 11
15881.0
 21
3850.0
 31
0.0
1001
VD_XPROPERTIES
  0
POLYLINE
  8
LEGEND_BOX
  5
5FF
 66
     1
 10
0.0
 20
0.0
 30
0.0
1001
VDEXTRAPARAM
1071
        0
1071
        0
1071
        0
1040
1.0
1000

1000

1001
VD_XPROPERTIES
  0
VERTEX
  8
LEGEND_BOX
  5
600
 10
15025.0
 20
1075.0
 30
0.0
  0
VERTEX
  8
LEGEND_BOX
  5
601
 10
15025.0
 20
125.0
 30
0.0
  0
VERTEX
  8
LEGEND_BOX
  5
602
 10
16475.0
 20
125.0
 30
0.0
  0
VERTEX
  8
LEGEND_BOX
  5
603
 10
16475.0
 20
1075.0
 30
0.0
  0
VERTEX
  8
LEGEND_BOX
  5
604
 10
15025.0
 20
1075.0
 30
0.0
  0
VERTEX
  8
LEGEND_BOX
  5
605
 10
15025.0
 20
1075.0
 30
0.0
  0
SEQEND
  8
0
  5
606
  0
TEXT
  8
TEXT
  5
607
 10
15775.0
 20
975.0
 30
0.0
 40
50.0
  1
LEGEND
 72
     1
 11
15775.0
 21
975.0
 31
0.0
1001
VD_XPROPERTIES
  0
POLYLINE
  8
WS500
 62
     3
  5
608
 66
     1
 10
0.0
 20
0.0
 30
0.0
1001
VDEXTRAPARAM
1071
        0
1071
        0
1071
        0
1040
1.0
1000

1000

1001
VD_XPROPERTIES
  0
VERTEX
  8
WS500
 62
     3
  5
609
 10
15150.0
 20
900.0
 30
0.0
  0
VERTEX
  8
WS500
 62
     3
  5
60A
 10
15700.0
 20
900.0
 30
0.0
  0
VERTEX
  8
WS500
 62
     3
  5
60B
 10
15700.0
 20
900.0
 30
0.0
  0
SEQEND
  8
0
  5
60C
  0
TEXT
  8
TEXT
  5
60D
 10
15825.0
 20
875.0
 30
0.0
 40
50.0
  1
500-YEAR FLOOD
1001
VD_XPROPERTIES
  0
POLYLINE
  8
WS100
 62
     1
  5
60E
 66
     1
 10
0.0
 20
0.0
 30
0.0
1001
VDEXTRAPARAM
1071
        0
1071
        0
1071
        0
1040
1.0
1000

1000

1001
VD_XPROPERTIES
  0
VERTEX
  8
WS100
 62
     1
  5
60F
 10
15150.0
 20
775.0
 30
0.0
  0
VERTEX
  8
WS100
 62
     1
  5
610
 10
15700.0
 20
775.0
 30
0.0
  0
VERTEX
  8
WS100
 62
     1
  5
611
 10
15700.0
 20
775.0
 30
0.0
  0
SEQEND
  8
0
  5
612
  0
TEXT
  8
TEXT
  5
613
 10
15825.0
 20
750.0
 30
0.0
 40
50.0
  1
100-YEAR FLOOD
1001
VD_XPROPERTIES
  0
POLYLINE
  8
WS50
 62
     5
  5
614
 66
     1
 10
0.0
 20
0.0
 30
0.0
1001
VDEXTRAPARAM
1071
        0
1071
        0
1071
        0
1040
1.0
1000

1000

1001
VD_XPROPERTIES
  0
VERTEX
  8
WS50
 62
     5
  5
615
 10
15150.0
 20
650.0
 30
0.0
  0
VERTEX
  8
WS50
 62
     5
  5
616
 10
15700.0
 20
650.0
 30
0.0
  0
VERTEX
  8
WS50
 62
     5
  5
617
 10
15700.0
 20
650.0
 30
0.0
  0
SEQEND
  8
0
  5
618
  0
TEXT
  8
TEXT
  5
619
 10
15825.0
 20
625.0
 30
0.0
 40
50.0
  1
50-YEAR FLOOD
1001
VD_XPROPERTIES
  0
POLYLINE
  8
WS10
 62
     6
  5
61A
 66
     1
 10
0.0
 20
0.0
 30
0.0
1001
VDEXTRAPARAM
1071
        0
1071
        0
1071
        0
1040
1.0
1000

1000

1001
VD_XPROPERTIES
  0
VERTEX
  8
WS10
 62
     6
  5
61B
 10
15150.0
 20
525.0
 30
0.0
  0
VERTEX
  8
WS10
 62
     6
  5
61C
 10
15700.0
 20
525.0
 30
0.0
  0
VERTEX
  8
WS10
 62
     6
  5
61D
 10
15700.0
 20
525.0
 30
0.0
  0
SEQEND
  8
0
  5
61E
  0
TEXT
  8
TEXT
  5
61F
 10
15825.0
 20
500.0
 30
0.0
 40
50.0
  1
10-YEAR FLOOD
1001
VD_XPROPERTIES
  0
POLYLINE
  8
STREAM
 62
     1
  5
620
 66
     1
 10
0.0
 20
0.0
 30
0.0
1001
VDEXTRAPARAM
1071
        0
1071
        0
1071
        0
1040
1.0
1000

1000

1001
VD_XPROPERTIES
  0
VERTEX
  8
STREAM
 62
     1
  5
621
 10
15150.0
 20
425.0
 30
0.0
  0
VERTEX
  8
STREAM
 62
     1
  5
622
 10
15700.0
 20
425.0
 30
0.0
  0
VERTEX
  8
STREAM
 62
     1
  5
623
 10
15700.0
 20
425.0
 30
0.0
  0
SEQEND
  8
0
  5
624
  0
TEXT
  8
TEXT
  5
625
 10
15825.0
 20
375.0
 30
0.0
 40
50.0
  1
STREAM BED
1001
VD_XPROPERTIES
  0
INSERT
  8
ROCK
 62
     1
  5
626
  2
ROCK
 10
15150.0
 20
424.4995
 30
0.0
 41
500.0
 42
500.0
1001
VD_XPROPERTIES
  0
TEXT
  8
TEXT
  5
627
 10
15825.0
 20
250.0
 30
0.0
 40
50.0
  1
CROSS SECTION
1001
VD_XPROPERTIES
  0
TEXT
  8
TEXT
  5
628
 10
15830.0
 20
191.6687
 30
0.0
 40
50.0
  1
LOCATION
1001
VD_XPROPERTIES
  0
POLYLINE
  8
LEGEND_XSEC
  5
629
 66
     1
 10
0.0
 20
0.0
 30
0.0
1001
VDEXTRAPARAM
1071
        0
1071
        0
1071
        0
1040
1.0
1000

1000

1001
VD_XPROPERTIES
  0
VERTEX
  8
LEGEND_XSEC
  5
62A
 10
15425.0
 20
300.0
 30
0.0
  0
VERTEX
  8
LEGEND_XSEC
  5
62B
 10
15360.05
 20
262.5
 30
0.0
  0
VERTEX
  8
LEGEND_XSEC
  5
62C
 10
15360.05
 20
187.5
 30
0.0
  0
VERTEX
  8
LEGEND_XSEC
  5
62D
 10
15425.0
 20
150.0
 30
0.0
  0
VERTEX
  8
LEGEND_XSEC
  5
62E
 10
15489.95
 20
187.5
 30
0.0
  0
VERTEX
  8
LEGEND_XSEC
  5
62F
 10
15489.95
 20
262.5
 30
0.0
  0
VERTEX
  8
LEGEND_XSEC
  5
630
 10
15425.0
 20
300.0
 30
0.0
  0
VERTEX
  8
LEGEND_XSEC
  5
631
 10
15425.0
 20
325.0
 30
0.0
  0
VERTEX
  8
LEGEND_XSEC
  5
632
 10
15425.0
 20
325.0
 30
0.0
  0
SEQEND
  8
0
  5
633
  0
INSERT
  8
GRIDS
  5
634
  2
BORDER
 10
20000.0
 20
100.0
 30
0.0
 41
500.0
 42
500.0
1001
VD_XPROPERTIES
  0
TEXT
  8
TEXT
  5
635
 10
19830.0
 20
77.5
 30
0.0
 40
60.0
  1
 3420
1001
VD_XPROPERTIES
  0
TEXT
  8
TEXT
  5
636
 10
19830.0
 20
577.5
 30
0.0
 40
60.0
  1
 3440
1001
VD_XPROPERTIES
  0
TEXT
  8
TEXT
  5
637
 10
19830.0
 20
1077.5
 30
0.0
 40
60.0
  1
 3460
1001
VD_XPROPERTIES
  0
TEXT
  8
TEXT
  5
638
 10
26555.0
 20
1077.5
 30
0.0
 40
60.0
  1
 3460
1001
VD_XPROPERTIES
  0
TEXT
  8
TEXT
  5
639
 10
19830.0
 20
1577.5
 30
0.0
 40
60.0
  1
 3480
1001
VD_XPROPERTIES
  0
TEXT
  8
TEXT
  5
63A
 10
26555.0
 20
1577.5
 30
0.0
 40
60.0
  1
 3480
1001
VD_XPROPERTIES
  0
TEXT
  8
TEXT
  5
63B
 10
19830.0
 20
2077.5
 30
0.0
 40
60.0
  1
 3500
1001
VD_XPROPERTIES
  0
TEXT
  8
TEXT
  5
63C
 10
26555.0
 20
2077.5
 30
0.0
 40
60.0
  1
 3500
1001
VD_XPROPERTIES
  0
TEXT
  8
TEXT
  5
63D
 10
19830.0
 20
2577.5
 30
0.0
 40
60.0
  1
 3520
1001
VD_XPROPERTIES
  0
TEXT
  8
TEXT
  5
63E
 10
26555.0
 20
2577.5
 30
0.0
 40
60.0
  1
 3520
1001
VD_XPROPERTIES
  0
TEXT
  8
TEXT
  5
63F
 10
19830.0
 20
3077.5
 30
0.0
 40
60.0
  1
 3540
1001
VD_XPROPERTIES
  0
TEXT
  8
TEXT
  5
640
 10
26555.0
 20
3077.5
 30
0.0
 40
60.0
  1
 3540
1001
VD_XPROPERTIES
  0
TEXT
  8
TEXT
  5
641
 10
19830.0
 20
3577.5
 30
0.0
 40
60.0
  1
 3560
1001
VD_XPROPERTIES
  0
TEXT
  8
TEXT
  5
642
 10
26555.0
 20
3577.5
 30
0.0
 40
60.0
  1
 3560
1001
VD_XPROPERTIES
  0
TEXT
  8
TEXT
  5
643
 10
19830.0
 20
4077.5
 30
0.0
 40
60.0
  1
 3580
1001
VD_XPROPERTIES
  0
TEXT
  8
TEXT
  5
644
 10
26555.0
 20
4077.5
 30
0.0
 40
60.0
  1
 3580
1001
VD_XPROPERTIES
  0
TEXT
  8
TEXT
  5
645
 10
19830.0
 20
4577.5
 30
0.0
 40
60.0
  1
 3600
1001
VD_XPROPERTIES
  0
TEXT
  8
TEXT
  5
646
 10
26555.0
 20
4577.5
 30
0.0
 40
60.0
  1
 3600
1001
VD_XPROPERTIES
  0
TEXT
  8
TEXT
  5
647
 10
20003.5
 20
0.001
 30
0.0
 40
60.0
  1
13000
 72
     1
 11
20003.5
 21
0.001
 31
0.0
1001
VD_XPROPERTIES
  0
TEXT
  8
TEXT
  5
648
 10
20503.5
 20
0.001
 30
0.0
 40
60.0
  1
13500
 72
     1
 11
20503.5
 21
0.001
 31
0.0
1001
VD_XPROPERTIES
  0
TEXT
  8
TEXT
  5
649
 10
21003.5
 20
0.001
 30
0.0
 40
60.0
  1
14000
 72
     1
 11
21003.5
 21
0.001
 31
0.0
1001
VD_XPROPERTIES
  0
TEXT
  8
TEXT
  5
64A
 10
21503.5
 20
0.001
 30
0.0
 40
60.0
  1
14500
 72
     1
 11
21503.5
 21
0.001
 31
0.0
1001
VD_XPROPERTIES
  0
TEXT
  8
TEXT
  5
64B
 10
22003.5
 20
0.001
 30
0.0
 40
60.0
  1
15000
 72
     1
 11
22003.5
 21
0.001
 31
0.0
1001
VD_XPROPERTIES
  0
TEXT
  8
TEXT
  5
64C
 10
22503.5
 20
0.001
 30
0.0
 40
60.0
  1
15500
 72
     1
 11
22503.5
 21
0.001
 31
0.0
1001
VD_XPROPERTIES
  0
TEXT
  8
TEXT
  5
64D
 10
23003.5
 20
0.001
 30
0.0
 40
60.0
  1
16000
 72
     1
 11
23003.5
 21
0.001
 31
0.0
1001
VD_XPROPERTIES
  0
TEXT
  8
TEXT
  5
64E
 10
23503.5
 20
0.001
 30
0.0
 40
60.0
  1
16500
 72
     1
 11
23503.5
 21
0.001
 31
0.0
1001
VD_XPROPERTIES
  0
TEXT
  8
TEXT
  5
64F
 10
24003.5
 20
0.001
 30
0.0
 40
60.0
  1
17000
 72
     1
 11
24003.5
 21
0.001
 31
0.0
1001
VD_XPROPERTIES
  0
TEXT
  8
TEXT
  5
650
 10
24503.5
 20
0.001
 30
0.0
 40
60.0
  1
17500
 72
     1
 11
24503.5
 21
0.001
 31
0.0
1001
VD_XPROPERTIES
  0
TEXT
  8
TEXT
  5
651
 10
25003.5
 20
0.001
 30
0.0
 40
60.0
  1
18000
 72
     1
 11
25003.5
 21
0.001
 31
0.0
1001
VD_XPROPERTIES
  0
TEXT
  8
TEXT
  5
652
 10
25503.5
 20
0.001
 30
0.0
 40
60.0
  1
18500
 72
     1
 11
25503.5
 21
0.001
 31
0.0
1001
VD_XPROPERTIES
  0
TEXT
  8
TEXT
  5
653
 10
26003.5
 20
0.001
 30
0.0
 40
60.0
  1
19000
 72
     1
 11
26003.5
 21
0.001
 31
0.0
1001
VD_XPROPERTIES
  0
TEXT
  8
TEXT
  5
654
 10
26503.5
 20
0.001
 30
0.0
 40
60.0
  1
19500
 72
     1
 11
26503.5
 21
0.001
 31
0.0
1001
VD_XPROPERTIES
  0
TEXT
  8
TEXT
  5
655
 10
19720.0
 20
2350.0
 30
0.0
 40
60.0
  1
ELEVATION IN FEET (NGVD)
 50
90.0
 72
     1
 11
19720.0
 21
2350.0
 31
0.0
1001
VD_XPROPERTIES
  0
TEXT
  8
TEXT
  5
656
 10
23250.0
 20
-175.0
 30
0.0
 40
60.0
  1
STREAM DISTANCE IN FEET ABOVE CONFLUENCE WITH BLOODY TANKS WASH
 72
     1
 11
23250.0
 21
-175.0
 31
0.0
1001
VD_XPROPERTIES
  0
TEXT
  8
TEXT
  5
657
 10
26875.0
 20
862.5
 30
0.0
 40
80.0
  1
FEDERAL EMERGENCY MANAGEMENT AGENCY
 50
90.0
 72
     1
 11
26875.0
 21
862.5
 31
0.0
1001
VD_XPROPERTIES
  0
TEXT
  8
TEXT
  5
658
 10
27050.0
 20
862.5
 30
0.0
 40
100.0
  1
GILA COUNTY, AZ
 50
90.0
 72
     1
 11
27050.0
 21
862.5
 31
0.0
1001
VD_XPROPERTIES
  0
TEXT
  8
TEXT
  5
659
 10
27175.0
 20
862.5
 30
0.0
 40
70.0
  1
(UNINCORPORATED AREAS)
 50
90.0
 72
     1
 11
27175.0
 21
862.5
 31
0.0
1001
VD_XPROPERTIES
  0
TEXT
  8
TEXT
  5
65A
 10
26920.0
 20
3262.5
 30
0.0
 40
100.0
  1
FLOOD PROFILES
 50
90.0
 72
     1
 11
26920.0
 21
3262.5
 31
0.0
1001
VD_XPROPERTIES
  0
TEXT
  8
TEXT
  5
65B
 10
27150.0
 20
3262.5
 30
0.0
 40
80.0
  1
RUSSELL GULCH
 50
90.0
 72
     1
 11
27150.0
 21
3262.5
 31
0.0
1001
VD_XPROPERTIES
  0
TEXT
  8
TEXT
  5
65C
 10
27000.0
 20
-225.0
 30
0.0
 40
100.0
  1
03P
 72
     1
 11
27000.0
 21
-225.0
 31
0.0
1001
VD_XPROPERTIES
  0
POLYLINE
  8
WS100
 62
     1
  5
65D
 66
     1
 10
0.0
 20
0.0
 30
0.0
1001
VDEXTRAPARAM
1071
        0
1071
        0
1071
        0
1040
1.0
1000

1000

1001
VD_XPROPERTIES
  0
VERTEX
  8
WS100
 62
     1
  5
65E
 10
20000.0
 20
952.1057
 30
0.0
  0
VERTEX
  8
WS100
 62
     1
  5
65F
 10
20539.0
 20
1222.748
 30
0.0
  0
VERTEX
  8
WS100
 62
     1
  5
660
 10
20539.0
 20
1222.748
 30
0.0
  0
VERTEX
  8
WS100
 62
     1
  5
661
 10
21043.6
 20
1470.502
 30
0.0
  0
VERTEX
  8
WS100
 62
     1
  5
662
 10
21043.6
 20
1470.502
 30
0.0
  0
VERTEX
  8
WS100
 62
     1
  5
663
 10
21553.5
 20
1715.997
 30
0.0
  0
VERTEX
  8
WS100
 62
     1
  5
664
 10
21553.5
 20
1715.997
 30
0.0
  0
VERTEX
  8
WS100
 62
     1
  5
665
 10
22048.8
 20
1959.998
 30
0.0
  0
VERTEX
  8
WS100
 62
     1
  5
666
 10
22048.8
 20
1959.998
 30
0.0
  0
VERTEX
  8
WS100
 62
     1
  5
667
 10
22451.2
 20
2185.748
 30
0.0
  0
VERTEX
  8
WS100
 62
     1
  5
668
 10
22451.2
 20
2185.748
 30
0.0
  0
VERTEX
  8
WS100
 62
     1
  5
669
 10
22953.7
 20
2442.749
 30
0.0
  0
VERTEX
  8
WS100
 62
     1
  5
66A
 10
22953.7
 20
2442.749
 30
0.0
  0
VERTEX
  8
WS100
 62
     1
  5
66B
 10
23499.9
 20
2914.752
 30
0.0
  0
VERTEX
  8
WS100
 62
     1
  5
66C
 10
23499.9
 20
2914.752
 30
0.0
  0
VERTEX
  8
WS100
 62
     1
  5
66D
 10
23966.4
 20
3328.247
 30
0.0
  0
VERTEX
  8
WS100
 62
     1
  5
66E
 10
23966.4
 20
3328.247
 30
0.0
  0
VERTEX
  8
WS100
 62
     1
  5
66F
 10
24299.9
 20
3669.751
 30
0.0
  0
VERTEX
  8
WS100
 62
     1
  5
670
 10
24299.9
 20
3669.751
 30
0.0
  0
SEQEND
  8
0
  5
671
  0
INSERT
  8
ROCK
 62
     1
  5
672
  2
ROCK
 10
20000.0
 20
757.4585
 30
0.0
 41
500.0
 42
500.0
 50
28.81808
1001
VD_XPROPERTIES
  0
INSERT
  8
ROCK
 62
     1
  5
673
  2
ROCK
 10
20539.0
 20
1053.998
 30
0.0
 41
500.0
 42
500.0
 50
28.48058
1001
VD_XPROPERTIES
  0
INSERT
  8
ROCK
 62
     1
  5
674
  2
ROCK
 10
21043.6
 20
1327.753
 30
0.0
 41
500.0
 42
500.0
 50
23.66879
1001
VD_XPROPERTIES
  0
POLYLINE
  8
STREAM
 62
     1
  5
675
 66
     1
 10
0.0
 20
0.0
 30
0.0
1001
VDEXTRAPARAM
1071
        0
1071
        0
1071
        0
1040
1.0
1000

1000

1001
VD_XPROPERTIES
  0
VERTEX
  8
STREAM
 62
     1
  5
676
 10
20000.0
 20
757.4585
 30
0.0
  0
VERTEX
  8
STREAM
 62
     1
  5
677
 10
20539.0
 20
1053.998
 30
0.0
  0
VERTEX
  8
STREAM
 62
     1
  5
678
 10
20539.0
 20
1053.998
 30
0.0
  0
VERTEX
  8
STREAM
 62
     1
  5
679
 10
21043.6
 20
1327.753
 30
0.0
  0
VERTEX
  8
STREAM
 62
     1
  5
67A
 10
21043.6
 20
1327.753
 30
0.0
  0
VERTEX
  8
STREAM
 62
     1
  5
67B
 10
21553.5
 20
1551.251
 30
0.0
  0
VERTEX
  8
STREAM
 62
     1
  5
67C
 10
21553.5
 20
1551.251
 30
0.0
  0
VERTEX
  8
STREAM
 62
     1
  5
67D
 10
22048.8
 20
1821.997
 30
0.0
  0
VERTEX
  8
STREAM
 62
     1
  5
67E
 10
22048.8
 20
1821.997
 30
0.0
  0
VERTEX
  8
STREAM
 62
     1
  5
67F
 10
22451.2
 20
2000.25
 30
0.0
  0
VERTEX
  8
STREAM
 62
     1
  5
680
 10
22451.2
 20
2000.25
 30
0.0
  0
VERTEX
  8
STREAM
 62
     1
  5
681
 10
22953.7
 20
2264.502
 30
0.0
  0
VERTEX
  8
STREAM
 62
     1
  5
682
 10
22953.7
 20
2264.502
 30
0.0
  0
VERTEX
  8
STREAM
 62
     1
  5
683
 10
23499.9
 20
2707.001
 30
0.0
  0
VERTEX
  8
STREAM
 62
     1
  5
684
 10
23499.9
 20
2707.001
 30
0.0
  0
VERTEX
  8
STREAM
 62
     1
  5
685
 10
23966.4
 20
3118.75
 30
0.0
  0
VERTEX
  8
STREAM
 62
     1
  5
686
 10
23966.4
 20
3118.75
 30
0.0
  0
VERTEX
  8
STREAM
 62
     1
  5
687
 10
24299.9
 20
3379.999
 30
0.0
  0
VERTEX
  8
STREAM
 62
     1
  5
688
 10
24299.9
 20
3379.999
 30
0.0
  0
SEQEND
  8
0
  5
689
  0
INSERT
  8
XSEC
 62
     3
  5
68A
  2
XSEC
 10
21553.5
 20
275.0
 30
0.0
 41
500.0
 42
500.0
1001
VD_XPROPERTIES
  0
TEXT
  8
TEXT
  5
68B
 10
21553.5
 20
275.0
 30
0.0
 40
50.0
  1
J
 72
     1
 11
21553.5
 21
275.0
 31
0.0
 73
     2
1001
VD_XPROPERTIES
  0
INSERT
  8
XSEC
 62
     3
  5
68C
  2
XSEC
 10
22953.7
 20
275.0
 30
0.0
 41
500.0
 42
500.0
1001
VD_XPROPERTIES
  0
TEXT
  8
TEXT
  5
68D
 10
22953.7
 20
275.0
 30
0.0
 40
50.0
  1
K
 72
     1
 11
22953.7
 21
275.0
 31
0.0
 73
     2
1001
VD_XPROPERTIES
  0
INSERT
  8
XSEC
 62
     3
  5
68E
  2
XSEC
 10
24299.9
 20
275.0
 30
0.0
 41
500.0
 42
500.0
1001
VD_XPROPERTIES
  0
TEXT
  8
TEXT
  5
68F
 10
24299.9
 20
275.0
 30
0.0
 40
50.0
  1
L
 72
     1
 11
24299.9
 21
275.0
 31
0.0
 73
     2
1001
VD_XPROPERTIES
  0
POLYLINE
  8
XSECTEXTLINE
  5
690
 66
     1
 10
0.0
 20
0.0
 30
0.0
1001
VDEXTRAPARAM
1071
        0
1071
        0
1071
        0
1040
1.0
1000

1000

1001
VD_XPROPERTIES
  0
VERTEX
  8
XSECTEXTLINE
  5
691
 10
24299.9
 20
3600.0
 30
0.0
  0
VERTEX
  8
XSECTEXTLINE
  5
692
 10
24299.9
 20
4100.0
 30
0.0
  0
VERTEX
  8
XSECTEXTLINE
  5
693
 10
24299.9
 20
4100.0
 30
0.0
  0
SEQEND
  8
0
  5
694
  0
TEXT
  8
TEXT
  5
695
 10
24274.9
 20
3850.0
 30
0.0
 40
60.0
  1
LIMIT OF DETAILED STUDY
 50
90.0
 72
     1
 11
24274.9
 21
3850.0
 31
0.0
1001
VD_XPROPERTIES
  0
POLYLINE
  8
LEGEND_BOX
  5
696
 66
     1
 10
0.0
 20
0.0
 30
0.0
1001
VDEXTRAPARAM
1071
        0
1071
        0
1071
        0
1040
1.0
1000

1000

1001
VD_XPROPERTIES
  0
VERTEX
  8
LEGEND_BOX
  5
697
 10
25025.0
 20
1075.0
 30
0.0
  0
VERTEX
  8
LEGEND_BOX
  5
698
 10
25025.0
 20
125.0
 30
0.0
  0
VERTEX
  8
LEGEND_BOX
  5
699
 10
26475.0
 20
125.0
 30
0.0
  0
VERTEX
  8
LEGEND_BOX
  5
69A
 10
26475.0
 20
1075.0
 30
0.0
  0
VERTEX
  8
LEGEND_BOX
  5
69B
 10
25025.0
 20
1075.0
 30
0.0
  0
VERTEX
  8
LEGEND_BOX
  5
69C
 10
25025.0
 20
1075.0
 30
0.0
  0
SEQEND
  8
0
  5
69D
  0
TEXT
  8
TEXT
  5
69E
 10
25775.0
 20
975.0
 30
0.0
 40
50.0
  1
LEGEND
 72
     1
 11
25775.0
 21
975.0
 31
0.0
1001
VD_XPROPERTIES
  0
POLYLINE
  8
WS500
 62
     3
  5
69F
 66
     1
 10
0.0
 20
0.0
 30
0.0
1001
VDEXTRAPARAM
1071
        0
1071
        0
1071
        0
1040
1.0
1000

1000

1001
VD_XPROPERTIES
  0
VERTEX
  8
WS500
 62
     3
  5
6A0
 10
25150.0
 20
900.0
 30
0.0
  0
VERTEX
  8
WS500
 62
     3
  5
6A1
 10
25700.0
 20
900.0
 30
0.0
  0
VERTEX
  8
WS500
 62
     3
  5
6A2
 10
25700.0
 20
900.0
 30
0.0
  0
SEQEND
  8
0
  5
6A3
  0
TEXT
  8
TEXT
  5
6A4
 10
25825.0
 20
875.0
 30
0.0
 40
50.0
  1
500-YEAR FLOOD
1001
VD_XPROPERTIES
  0
POLYLINE
  8
WS100
 62
     1
  5
6A5
 66
     1
 10
0.0
 20
0.0
 30
0.0
1001
VDEXTRAPARAM
1071
        0
1071
        0
1071
        0
1040
1.0
1000

1000

1001
VD_XPROPERTIES
  0
VERTEX
  8
WS100
 62
     1
  5
6A6
 10
25150.0
 20
775.0
 30
0.0
  0
VERTEX
  8
WS100
 62
     1
  5
6A7
 10
25700.0
 20
775.0
 30
0.0
  0
VERTEX
  8
WS100
 62
     1
  5
6A8
 10
25700.0
 20
775.0
 30
0.0
  0
SEQEND
  8
0
  5
6A9
  0
TEXT
  8
TEXT
  5
6AA
 10
25825.0
 20
750.0
 30
0.0
 40
50.0
  1
100-YEAR FLOOD
1001
VD_XPROPERTIES
  0
POLYLINE
  8
WS50
 62
     5
  5
6AB
 66
     1
 10
0.0
 20
0.0
 30
0.0
1001
VDEXTRAPARAM
1071
        0
1071
        0
1071
        0
1040
1.0
1000

1000

1001
VD_XPROPERTIES
  0
VERTEX
  8
WS50
 62
     5
  5
6AC
 10
25150.0
 20
650.0
 30
0.0
  0
VERTEX
  8
WS50
 62
     5
  5
6AD
 10
25700.0
 20
650.0
 30
0.0
  0
VERTEX
  8
WS50
 62
     5
  5
6AE
 10
25700.0
 20
650.0
 30
0.0
  0
SEQEND
  8
0
  5
6AF
  0
TEXT
  8
TEXT
  5
6B0
 10
25825.0
 20
625.0
 30
0.0
 40
50.0
  1
50-YEAR FLOOD
1001
VD_XPROPERTIES
  0
POLYLINE
  8
WS10
 62
     6
  5
6B1
 66
     1
 10
0.0
 20
0.0
 30
0.0
1001
VDEXTRAPARAM
1071
        0
1071
        0
1071
        0
1040
1.0
1000

1000

1001
VD_XPROPERTIES
  0
VERTEX
  8
WS10
 62
     6
  5
6B2
 10
25150.0
 20
525.0
 30
0.0
  0
VERTEX
  8
WS10
 62
     6
  5
6B3
 10
25700.0
 20
525.0
 30
0.0
  0
VERTEX
  8
WS10
 62
     6
  5
6B4
 10
25700.0
 20
525.0
 30
0.0
  0
SEQEND
  8
0
  5
6B5
  0
TEXT
  8
TEXT
  5
6B6
 10
25825.0
 20
500.0
 30
0.0
 40
50.0
  1
10-YEAR FLOOD
1001
VD_XPROPERTIES
  0
POLYLINE
  8
STREAM
 62
     1
  5
6B7
 66
     1
 10
0.0
 20
0.0
 30
0.0
1001
VDEXTRAPARAM
1071
        0
1071
        0
1071
        0
1040
1.0
1000

1000

1001
VD_XPROPERTIES
  0
VERTEX
  8
STREAM
 62
     1
  5
6B8
 10
25150.0
 20
425.0
 30
0.0
  0
VERTEX
  8
STREAM
 62
     1
  5
6B9
 10
25700.0
 20
425.0
 30
0.0
  0
VERTEX
  8
STREAM
 62
     1
  5
6BA
 10
25700.0
 20
425.0
 30
0.0
  0
SEQEND
  8
0
  5
6BB
  0
TEXT
  8
TEXT
  5
6BC
 10
25825.0
 20
375.0
 30
0.0
 40
50.0
  1
STREAM BED
1001
VD_XPROPERTIES
  0
INSERT
  8
ROCK
 62
     1
  5
6BD
  2
ROCK
 10
25150.0
 20
424.4995
 30
0.0
 41
500.0
 42
500.0
1001
VD_XPROPERTIES
  0
TEXT
  8
TEXT
  5
6BE
 10
25825.0
 20
250.0
 30
0.0
 40
50.0
  1
CROSS SECTION
1001
VD_XPROPERTIES
  0
TEXT
  8
TEXT
  5
6BF
 10
25830.0
 20
191.6687
 30
0.0
 40
50.0
  1
LOCATION
1001
VD_XPROPERTIES
  0
POLYLINE
  8
LEGEND_XSEC
  5
6C0
 66
     1
 10
0.0
 20
0.0
 30
0.0
1001
VDEXTRAPARAM
1071
        0
1071
        0
1071
        0
1040
1.0
1000

1000

1001
VD_XPROPERTIES
  0
VERTEX
  8
LEGEND_XSEC
  5
6C1
 10
25425.0
 20
300.0
 30
0.0
  0
VERTEX
  8
LEGEND_XSEC
  5
6C2
 10
25360.05
 20
262.5
 30
0.0
  0
VERTEX
  8
LEGEND_XSEC
  5
6C3
 10
25360.05
 20
187.5
 30
0.0
  0
VERTEX
  8
LEGEND_XSEC
  5
6C4
 10
25425.0
 20
150.0
 30
0.0
  0
VERTEX
  8
LEGEND_XSEC
  5
6C5
 10
25489.95
 20
187.5
 30
0.0
  0
VERTEX
  8
LEGEND_XSEC
  5
6C6
 10
25489.95
 20
262.5
 30
0.0
  0
VERTEX
  8
LEGEND_XSEC
  5
6C7
 10
25425.0
 20
300.0
 30
0.0
  0
VERTEX
  8
LEGEND_XSEC
  5
6C8
 10
25425.0
 20
325.0
 30
0.0
  0
VERTEX
  8
LEGEND_XSEC
  5
6C9
 10
25425.0
 20
325.0
 30
0.0
  0
SEQEND
  8
0
  5
6CA
  0
INSERT
  8
SYMBOL
 62
     2
  5
6CB
  2
ADO102
 10
-2200.0
 20
0.0
 30
0.0
1001
VD_XPROPERTIES
  0
INSERT
  8
SYMBOL
 62
     2
  5
6CC
  2
ADO102
 10
-2200.0
 20
0.0
 30
0.0
1001
VD_XPROPERTIES
  0
ENDSEC
  0
EOF
