  0
SECTION
  2
HEADER
  9
$ACADVER
  1
AC1009
  9
$INSBASE
 10
0.0
 20
0.0
 30
0.0
  9
$EXTMIN
 10
1.000000E+20
 20
1.000000E+20
 30
1.000000E+20
  9
$EXTMAX
 10
-1.000000E+20
 20
-1.000000E+20
 30
-1.000000E+20
  9
$LIMMIN
 10
0.0
 20
0.0
  9
$LIMMAX
 10
12.0
 20
9.0
  9
$ORTHOMODE
 70
     0
  9
$REGENMODE
 70
     1
  9
$FILLMODE
 70
     1
  9
$QTEXTMODE
 70
     0
  9
$MIRRTEXT
 70
     1
  9
$DRAGMODE
 70
     2
  9
$LTSCALE
 40
40.0
  9
$OSMODE
 70
     0
  9
$ATTMODE
 70
     1
  9
$TEXTSIZE
 40
0.2
  9
$TRACEWID
 40
0.05
  9
$TEXTSTYLE
  7
STANDARD
  9
$CLAYER
  8
SYMBOL
  9
$CELTYPE
  6
BYLAYER
  9
$CECOLOR
 62
     2
  9
$DIMSCALE
 40
1.0
  9
$DIMASZ
 40
0.18
  9
$DIMEXO
 40
0.0625
  9
$DIMDLI
 40
0.38
  9
$DIMRND
 40
0.0
  9
$DIMDLE
 40
0.0
  9
$DIMEXE
 40
0.18
  9
$DIMTP
 40
0.0
  9
$DIMTM
 40
0.0
  9
$DIMTXT
 40
0.18
  9
$DIMCEN
 40
0.09
  9
$DIMTSZ
 40
0.0
  9
$DIMTOL
 70
     0
  9
$DIMLIM
 70
     0
  9
$DIMTIH
 70
     1
  9
$DIMTOH
 70
     1
  9
$DIMSE1
 70
     0
  9
$DIMSE2
 70
     0
  9
$DIMTAD
 70
     0
  9
$DIMZIN
 70
     0
  9
$DIMBLK
  1

  9
$DIMASO
 70
     1
  9
$DIMSHO
 70
     1
  9
$DIMPOST
  1

  9
$DIMAPOST
  1

  9
$DIMALT
 70
     0
  9
$DIMALTD
 70
     2
  9
$DIMALTF
 40
25.4
  9
$DIMLFAC
 40
1.0
  9
$DIMTOFL
 70
     0
  9
$DIMTVP
 40
0.0
  9
$DIMTIX
 70
     0
  9
$DIMSOXD
 70
     0
  9
$DIMSAH
 70
     0
  9
$DIMBLK1
  1

  9
$DIMBLK2
  1

  9
$DIMSTYLE
  2
STANDARD
  9
$DIMCLRD
 70
     0
  9
$DIMCLRE
 70
     0
  9
$DIMCLRT
 70
     0
  9
$DIMTFAC
 40
1.0
  9
$DIMGAP
 40
0.09
  9
$LUNITS
 70
     2
  9
$LUPREC
 70
     4
  9
$AXISMODE
 70
     0
  9
$AXISUNIT
 10
0.0
 20
0.0
  9
$SKETCHINC
 40
0.1
  9
$FILLETRAD
 40
0.0
  9
$AUNITS
 70
     0
  9
$AUPREC
 70
     0
  9
$MENU
  1
acad
  9
$ELEVATION
 40
200.0
  9
$PELEVATION
 40
0.0
  9
$THICKNESS
 40
0.0
  9
$LIMCHECK
 70
     0
  9
$BLIPMODE
 70
     1
  9
$CHAMFERA
 40
0.0
  9
$CHAMFERB
 40
0.0
  9
$SKPOLY
 70
     0
  9
$TDCREATE
 40
0.000000000
  9
$TDUPDATE
 40
0.000000000
  9
$TDINDWG
 40
0.0000000000
  9
$TDUSRTIMER
 40
0.0000000000
  9
$USRTIMER
 70
     1
  9
$ANGBASE
 50
0.0
  9
$ANGDIR
 70
     0
  9
$PDMODE
 70
     0
  9
$PDSIZE
 40
0.0
  9
$PLINEWID
 40
0.0
  9
$COORDS
 70
     0
  9
$SPLFRAME
 70
     0
  9
$SPLINETYPE
 70
     6
  9
$SPLINESEGS
 70
     8
  9
$ATTDIA
 70
     0
  9
$ATTREQ
 70
     1
  9
$HANDLING
 70
     1
  9
$HANDSEED
  5
95F
  9
$SURFTAB1
 70
     6
  9
$SURFTAB2
 70
     6
  9
$SURFTYPE
 70
     6
  9
$SURFU
 70
     6
  9
$SURFV
 70
     6
  9
$UCSNAME
  2

  9
$UCSORG
 10
0.0
 20
0.0
 30
0.0
  9
$UCSXDIR
 10
1.0
 20
0.0
 30
0.0
  9
$UCSYDIR
 10
0.0
 20
1.0
 30
0.0
  9
$PUCSNAME
  2

  9
$PUCSORG
 10
0.0
 20
0.0
 30
0.0
  9
$PUCSXDIR
 10
1.0
 20
0.0
 30
0.0
  9
$PUCSYDIR
 10
0.0
 20
1.0
 30
0.0
  9
$USERI1
 70
     0
  9
$USERI2
 70
     0
  9
$USERI3
 70
     0
  9
$USERI4
 70
     0
  9
$USERI5
 70
     0
  9
$USERR1
 40
0.0
  9
$USERR2
 40
0.0
  9
$USERR3
 40
0.0
  9
$USERR4
 40
0.0
  9
$USERR5
 40
0.0
  9
$WORLDVIEW
 70
     1
  9
$SHADEDGE
 70
     3
  9
$SHADEDIF
 70
    70
  9
$TILEMODE
 70
     1
  9
$MAXACTVP
 70
    16
  9
$PINSBASE
 10
0.0
 20
0.0
 30
0.0
  9
$PLIMCHECK
 70
     0
  9
$PEXTMIN
 10
1.000000E+20
 20
1.000000E+20
 30
1.000000E+20
  9
$PEXTMAX
 10
-1.000000E+20
 20
-1.000000E+20
 30
-1.000000E+20
  9
$PLIMMIN
 10
0.0
 20
0.0
  9
$PLIMMAX
 10
12.0
 20
9.0
  9
$UNITMODE
 70
     0
  9
$VISRETAIN
 70
     0
  0
ENDSEC
  0
SECTION
  2
TABLES
  0
TABLE
  2
VPORT
 70
     1
  0
VPORT
  2
*ACTIVE
 70
     0
 10
0.0
 20
0.0
 11
1.0
 21
1.0
 12
6.591288
 22
4.579184
 13
0.0
 23
0.0
 14
1.0
 24
1.0
 15
0.0
 25
0.0
 16
0.0
 26
0.0
 36
1.0
 17
0.0
 27
0.0
 37
0.0
 40
9.158369
 41
0.688564
 42
50.0
 43
0.0
 44
0.0
 50
0.0
 51
0.0
 71
     0
 72
   100
 73
     1
 74
     1
 75
     0
 76
     0
 77
     0
 78
     0
  0
ENDTAB
  0
TABLE
  2
LTYPE
 70
    25
  0
LTYPE
  2
CONTINUOUS
 70
    64
  3
Solid line
 72
    65
 73
     0
 40
0.0
  0
LTYPE
  2
CENTER
 70
    64
  3
CENTER____ _ ____ _ ____ _ ____ _ ____ _ ____
 72
    65
 73
     4
 40
2.0
 49
1.25
 49
-0.25
 49
0.25
 49
-0.25
  0
LTYPE
  2
DASHDOT
 70
    64
  3
DASHDOT__ . __ . __ . __ . __ . __ . __ . __
 72
    65
 73
     4
 40
1.0
 49
0.5
 49
-0.25
 49
0.0
 49
-0.25
  0
LTYPE
  2
DASHED
 70
    64
  3
DASHED__ __ __ __ __ __ __ __ __ __ __ __ __ _
 72
    65
 73
     4
 40
0.75
 49
0.5
 49
-0.25
 49
0.0
 49
0.0
  0
LTYPE
  2
HIDDEN
 70
    64
  3
HIDDEN__ __ __ __ __ __ __ __ __ __ __ __ __ __
 72
    65
 73
     4
 40
0.375
 49
0.25
 49
-0.125
 49
0.0
 49
0.0
  0
LTYPE
  2
HIDDEN2
 70
    64
  3
HIDDEN2_ _ _ _ _ _ _ _ _ _ _ _ _ _ _ _ _ 
 72
    65
 73
     4
 40
0.1875
 49
0.125
 49
-0.0625
 49
0.0
 49
0.0
  0
LTYPE
  2
BORDER
 70
    64
  3
BORDER __ __ . __ __ . __ __ . __ __ . __ __ .
 72
    65
 73
     5
 40
1.75
 49
0.5
 49
-0.25
 49
0.5
 49
-0.25
 49
0.0
  0
LTYPE
  2
BORDER2
 70
    64
  3
BORDER2  __.__.__.__.__.__.__.__.__.__.__.
 72
    65
 73
     6
 40
0.875
 49
0.25
 49
-0.125
 49
0.25
 49
-0.125
 49
0.0
 49
-0.125
  0
LTYPE
  2
BORDERX2
 70
    64
  3
BORDERX2 ____  ____  .  ____  ____  .  ___
 72
    65
 73
     6
 40
3.5
 49
1.0
 49
-0.5
 49
1.0
 49
-0.5
 49
0.0
 49
-0.5
  0
LTYPE
  2
CENTER2
 70
    64
  3
CENTER2 ___ _ ___ _ ___ _ ___ _ ___ _ ___
 72
    65
 73
     4
 40
1.125
 49
0.75
 49
-0.125
 49
0.125
 49
-0.125
  0
LTYPE
  2
CENTERX2
 70
    64
  3
CENTERX2 ________  __  ________  __  _____
 72
    65
 73
     4
 40
4.0
 49
2.5
 49
-0.5
 49
0.5
 49
-0.5
  0
LTYPE
  2
DASHDOT2
 70
    64
  3
DASHDOT2  _._._._._._._._._._._._._._._.
 72
    65
 73
     4
 40
4.0
 49
0.25
 49
-0.125
 49
0.0
 49
-0.125
  0
LTYPE
  2
DASHDOTX2
 70
    64
  3
DASHDOTX2 ____  .  ____  .  ____  .  ___
 72
    65
 73
     3
 40
2.0
 49
1.0
 49
-0.5
 49
0.0
  0
LTYPE
  2
DASHED2
 70
    64
  3
DASHED2 _ _ _ _ _ _ _ _ _ _ _ _ _ _ _ _ _ 
 72
    65
 73
     2
 40
0.15
 49
0.25
 49
-0.125
  0
LTYPE
  2
DASHEDX2
 70
    64
  3
DASHEDX2 ____  ____  ____  ____  ____  ___
 72
    65
 73
     2
 40
1.5
 49
1.0
 49
-0.5
  0
LTYPE
  2
DIVIDE
 70
    64
  3
DIVIDE  ____ . . ____ . . ____ . . ____ . . ____
 72
    65
 73
     6
 40
1.25
 49
0.5
 49
-0.25
 49
0.0
 49
-0.25
 49
0.0
 49
-0.25
  0
LTYPE
  2
DIVIDE2
 70
    64
  3
DIVIDE2  __..__..__..__..__..__..__..__.._
 72
    65
 73
     6
 40
0.625
 49
0.25
 49
-0.125
 49
0.0
 49
-0.125
 49
0.0
 49
-0.125
  0
LTYPE
  2
DIVIDEX2
 70
    64
  3
DIVIDEX2  ________  .  .  ________  .  .  _
 72
    65
 73
     6
 40
2.5
 49
1.0
 49
-0.5
 49
0.0
 49
-0.5
 49
0.0
 49
-0.5
  0
LTYPE
  2
DOT
 70
    64
  3
DOT . . . . . . . . . . . . . . . . . . . . . . . .
 72
    65
 73
     2
 40
0.25
 49
0.0
 49
-0.25
  0
LTYPE
  2
DOT2
 70
    64
  3
DOT2  ........................................
 72
    65
 73
     2
 40
0.125
 49
0.0
 49
-0.125
  0
LTYPE
  2
DOTX2
 70
    64
  3
DOTX2 .  .  .  .  .  .  .  .  .  .  .  .  .  .
 72
    65
 73
     2
 40
0.5
 49
0.0
 49
-0.5
  0
LTYPE
  2
HIDDENX2
 70
    64
  3
HIDDENX2  ____ ____ ____ ____ ____ ____ ____ 
 72
    65
 73
     2
 40
0.75
 49
0.5
 49
-0.25
  0
LTYPE
  2
PHANTOM
 70
    64
  3
PHANTOM  ______  __  __  ______  __  __  ______ 
 72
    65
 73
     6
 40
2.5
 49
1.25
 49
-0.25
 49
0.25
 49
-0.25
 49
0.25
 49
-0.25
  0
LTYPE
  2
PHANTOM2
 70
    64
  3
PHANTOM2  ___ _ _ ___ _ _ ___ _ _ ___ _ _
 72
    65
 73
     6
 40
1.25
 49
0.625
 49
-0.125
 49
0.125
 49
-0.125
 49
0.125
 49
-0.125
  0
LTYPE
  2
PHANTOMX2
 70
    64
  3
PHANTOMX2 ____________    ____    ____   _
 72
    65
 73
     6
 40
5.0
 49
2.5
 49
-0.5
 49
0.5
 49
-0.5
 49
0.5
 49
-0.5
  0
ENDTAB
  0
TABLE
  2
LAYER
 70
    26
  0
LAYER
  2
0
 70
     0
 62
     7
  6
CONTINUOUS
  0
LAYER
  2
SYMBOL
 70
     0
 62
     3
  6
CONTINUOUS
  0
LAYER
  2
WS10
 70
     0
 62
     4
  6
HIDDEN
  0
LAYER
  2
STREAM
 70
     0
 62
     5
  6
CONTINUOUS
  0
LAYER
  2
WS100
 70
     0
 62
     5
  6
PHANTOM
  0
LAYER
  2
WS500
 70
     0
 62
     1
  6
CONTINUOUS
  0
LAYER
  2
STRUCTURE
 70
     0
 62
     3
  6
CONTINUOUS
  0
LAYER
  2
WS50
 70
     0
 62
     1
  6
CENTER
  0
LAYER
  2
GRIDS
 70
     0
 62
     7
  6
CONTINUOUS
  0
LAYER
  2
TEXT
 70
     0
 62
     7
  6
CONTINUOUS
  0
LAYER
  2
ROCK
 70
     0
 62
     7
  6
CONTINUOUS
  0
LAYER
  2
XSEC
 70
     0
 62
     7
  6
CONTINUOUS
  0
LAYER
  2
XSECTEXTLINE
 70
     0
 62
     7
  6
CONTINUOUS
  0
LAYER
  2
LANDMARKLINE
 70
     0
 62
     7
  6
CONTINUOUS
  0
LAYER
  2
LEGEND_BOX
 70
     0
 62
     7
  6
CONTINUOUS
  0
LAYER
  2
LEGEND_XSEC
 70
     0
 62
     7
  6
CONTINUOUS
  0
LAYER
  2
CULVERT
 70
     0
 62
     7
  6
CONTINUOUS
  0
LAYER
  2
HATCH
 70
     0
 62
     7
  6
CONTINUOUS
  0
LAYER
  2
BRIDGE
 70
     0
 62
     7
  6
CONTINUOUS
  0
LAYER
  2
BORDERLINE
 70
     0
 62
     7
  6
CONTINUOUS
  0
LAYER
  2
GRID_MAJOR
 70
     0
 62
     7
  6
CONTINUOUS
  0
LAYER
  2
GRID_MINOR
 70
     0
 62
     7
  6
CONTINUOUS
  0
LAYER
  2
BACKWATER
 70
     0
 62
     7
  6
CONTINUOUS
  0
LAYER
  2
LEADER
 70
     0
 62
     7
  6
CONTINUOUS
  0
LAYER
  2
DAM
 70
     0
 62
     7
  6
CONTINUOUS
  0
LAYER
  2
XSEC_LINE
 70
     0
 62
     7
  6
CONTINUOUS
  0
ENDTAB
  0
TABLE
  2
STYLE
 70
     2
  0
STYLE
  2
STANDARD
 70
     0
 40
0.0
 41
1.0
 50
0.0
 71
     0
 42
0.2
  3
txt
  4

  0
STYLE
  2
ROMANT
 70
     0
 40
0.0
 41
1.0
 50
0.0
 71
     0
 42
0.2
  3

  4

  0
ENDTAB
  0
TABLE
  2
VIEW
 70
     0
  0
ENDTAB
  0
TABLE
  2
UCS
 70
     0
  0
ENDTAB
  0
TABLE
  2
APPID
 70
     4
  0
APPID
  2
ACAD
 70
     0
  0
APPID
  2
VDEXTRAPARAM
 70
     0
  0
APPID
  2
VD_XPROPERTIES
 70
     0
  0
APPID
  2
VD_TEMPHATCH
 70
     0
  0
ENDTAB
  0
TABLE
  2
DIMSTYLE
 70
     1
  0
DIMSTYLE
  2
STANDARD
 70
     0
  3

  4

  5

  6

  7

 40
1.0
 41
100.0
 42
0.0625
 43
0.38
 44
0.18
 45
0.0
 46
0.0
 47
0.0
 48
0.0
 71
     0
 72
     0
 73
     1
 74
     1
 75
     0
 76
     0
 77
     0
 78
     0
140
20.0
141
0.09
142
0.0
143
25.4
144
1.0
145
0.0
146
1.0
147
0.09
170
     0
171
     2
172
     0
173
     0
174
     0
175
     0
176
     0
177
     0
178
     0
  0
ENDTAB
  0
ENDSEC
  0
SECTION
  2
BLOCKS
  0
BLOCK
  8
0
  5
5C
  2
BAR
 70
     0
 10
0.0
 20
0.0
 30
0.0
  3
BAR
1001
VD_XPROPERTIES
  0
LINE
  8
BRIDGE
 62
     1
  5
5D
 10
-0.05
 20
0.0
 30
0.0
 11
0.05
 21
0.0
 31
0.0
1001
VD_XPROPERTIES
  0
ENDBLK
  8
0
  5
5E
  0
BLOCK
  8
0
  5
5F
  2
BORDER
 70
     0
 10
0.0
 20
0.0
 30
0.0
  3
BORDER
1001
VD_XPROPERTIES
  0
POLYLINE
  8
BORDERLINE
  5
60
 66
     1
 10
0.0
 20
0.0
 30
0.0
1001
VDEXTRAPARAM
1071
        0
1071
        0
1071
        0
1040
1.0
1000

1000

1001
VD_XPROPERTIES
  0
VERTEX
  8
BORDERLINE
  5
61
 10
-0.999833
 20
-0.75
 30
0.0
  0
VERTEX
  8
BORDERLINE
  5
62
 10
14.500167
 20
-0.75
 30
0.0
  0
VERTEX
  8
BORDERLINE
  5
63
 10
14.500167
 20
9.25
 30
0.0
  0
VERTEX
  8
BORDERLINE
  5
64
 10
-0.999833
 20
9.25
 30
0.0
  0
VERTEX
  8
BORDERLINE
  5
65
 10
-0.999833
 20
-0.75
 30
0.0
  0
VERTEX
  8
BORDERLINE
  5
66
 10
-0.999833
 20
-0.75
 30
0.0
  0
SEQEND
  8
0
  5
67
  0
POLYLINE
  8
GRID_MAJOR
  5
68
 66
     1
 10
0.0
 20
0.0
 30
0.0
1001
VDEXTRAPARAM
1071
        0
1071
        0
1071
        0
1040
1.0
1000

1000

1001
VD_XPROPERTIES
  0
VERTEX
  8
GRID_MAJOR
  5
69
 10
2.0
 20
0.0
 30
0.0
  0
VERTEX
  8
GRID_MAJOR
  5
6A
 10
2.0
 20
9.0
 30
0.0
  0
SEQEND
  8
0
  5
6B
  0
POLYLINE
  8
GRID_MAJOR
  5
6C
 66
     1
 10
0.0
 20
0.0
 30
0.0
1001
VDEXTRAPARAM
1071
        0
1071
        0
1071
        0
1040
1.0
1000

1000

1001
VD_XPROPERTIES
  0
VERTEX
  8
GRID_MAJOR
  5
6D
 10
1.0
 20
0.0
 30
0.0
  0
VERTEX
  8
GRID_MAJOR
  5
6E
 10
1.0
 20
9.0
 30
0.0
  0
SEQEND
  8
0
  5
6F
  0
POLYLINE
  8
GRID_MAJOR
  5
70
 66
     1
 10
0.0
 20
0.0
 30
0.0
1001
VDEXTRAPARAM
1071
        0
1071
        0
1071
        0
1040
1.0
1000

1000

1001
VD_XPROPERTIES
  0
VERTEX
  8
GRID_MAJOR
  5
71
 10
0.0
 20
0.0
 30
0.0
  0
VERTEX
  8
GRID_MAJOR
  5
72
 10
0.0
 20
9.0
 30
0.0
  0
SEQEND
  8
0
  5
73
  0
POLYLINE
  8
GRID_MINOR
  6
CONTINUOUS
 62
     8
  5
74
 66
     1
 10
0.0
 20
0.0
 30
0.0
1001
VDEXTRAPARAM
1071
        0
1071
        0
1071
        0
1040
1.0
1000

1000

1001
VD_XPROPERTIES
  0
VERTEX
  8
GRID_MINOR
  6
CONTINUOUS
 62
     8
  5
75
 10
0.1
 20
0.0
 30
0.0
  0
VERTEX
  8
GRID_MINOR
  6
CONTINUOUS
 62
     8
  5
76
 10
0.1
 20
9.0
 30
0.0
  0
SEQEND
  8
0
  5
77
  0
POLYLINE
  8
GRID_MINOR
  6
CONTINUOUS
 62
     8
  5
78
 66
     1
 10
0.0
 20
0.0
 30
0.0
1001
VDEXTRAPARAM
1071
        0
1071
        0
1071
        0
1040
1.0
1000

1000

1001
VD_XPROPERTIES
  0
VERTEX
  8
GRID_MINOR
  6
CONTINUOUS
 62
     8
  5
79
 10
0.2
 20
0.0
 30
0.0
  0
VERTEX
  8
GRID_MINOR
  6
CONTINUOUS
 62
     8
  5
7A
 10
0.2
 20
9.0
 30
0.0
  0
SEQEND
  8
0
  5
7B
  0
POLYLINE
  8
GRID_MINOR
  6
CONTINUOUS
 62
     8
  5
7C
 66
     1
 10
0.0
 20
0.0
 30
0.0
1001
VDEXTRAPARAM
1071
        0
1071
        0
1071
        0
1040
1.0
1000

1000

1001
VD_XPROPERTIES
  0
VERTEX
  8
GRID_MINOR
  6
CONTINUOUS
 62
     8
  5
7D
 10
0.3
 20
0.0
 30
0.0
  0
VERTEX
  8
GRID_MINOR
  6
CONTINUOUS
 62
     8
  5
7E
 10
0.3
 20
9.0
 30
0.0
  0
SEQEND
  8
0
  5
7F
  0
POLYLINE
  8
GRID_MINOR
  6
CONTINUOUS
 62
     8
  5
80
 66
     1
 10
0.0
 20
0.0
 30
0.0
1001
VDEXTRAPARAM
1071
        0
1071
        0
1071
        0
1040
1.0
1000

1000

1001
VD_XPROPERTIES
  0
VERTEX
  8
GRID_MINOR
  6
CONTINUOUS
 62
     8
  5
81
 10
0.4
 20
0.0
 30
0.0
  0
VERTEX
  8
GRID_MINOR
  6
CONTINUOUS
 62
     8
  5
82
 10
0.4
 20
9.0
 30
0.0
  0
SEQEND
  8
0
  5
83
  0
POLYLINE
  8
GRID_MINOR
  6
CONTINUOUS
 62
     8
  5
84
 66
     1
 10
0.0
 20
0.0
 30
0.0
1001
VDEXTRAPARAM
1071
        0
1071
        0
1071
        0
1040
1.0
1000

1000

1001
VD_XPROPERTIES
  0
VERTEX
  8
GRID_MINOR
  6
CONTINUOUS
 62
     8
  5
85
 10
0.5
 20
0.0
 30
0.0
  0
VERTEX
  8
GRID_MINOR
  6
CONTINUOUS
 62
     8
  5
86
 10
0.5
 20
9.0
 30
0.0
  0
SEQEND
  8
0
  5
87
  0
POLYLINE
  8
GRID_MINOR
  6
CONTINUOUS
 62
     8
  5
88
 66
     1
 10
0.0
 20
0.0
 30
0.0
1001
VDEXTRAPARAM
1071
        0
1071
        0
1071
        0
1040
1.0
1000

1000

1001
VD_XPROPERTIES
  0
VERTEX
  8
GRID_MINOR
  6
CONTINUOUS
 62
     8
  5
89
 10
0.6
 20
0.0
 30
0.0
  0
VERTEX
  8
GRID_MINOR
  6
CONTINUOUS
 62
     8
  5
8A
 10
0.6
 20
9.0
 30
0.0
  0
SEQEND
  8
0
  5
8B
  0
POLYLINE
  8
GRID_MINOR
  6
CONTINUOUS
 62
     8
  5
8C
 66
     1
 10
0.0
 20
0.0
 30
0.0
1001
VDEXTRAPARAM
1071
        0
1071
        0
1071
        0
1040
1.0
1000

1000

1001
VD_XPROPERTIES
  0
VERTEX
  8
GRID_MINOR
  6
CONTINUOUS
 62
     8
  5
8D
 10
0.7
 20
0.0
 30
0.0
  0
VERTEX
  8
GRID_MINOR
  6
CONTINUOUS
 62
     8
  5
8E
 10
0.7
 20
9.0
 30
0.0
  0
SEQEND
  8
0
  5
8F
  0
POLYLINE
  8
GRID_MINOR
  6
CONTINUOUS
 62
     8
  5
90
 66
     1
 10
0.0
 20
0.0
 30
0.0
1001
VDEXTRAPARAM
1071
        0
1071
        0
1071
        0
1040
1.0
1000

1000

1001
VD_XPROPERTIES
  0
VERTEX
  8
GRID_MINOR
  6
CONTINUOUS
 62
     8
  5
91
 10
0.8
 20
0.0
 30
0.0
  0
VERTEX
  8
GRID_MINOR
  6
CONTINUOUS
 62
     8
  5
92
 10
0.8
 20
9.0
 30
0.0
  0
SEQEND
  8
0
  5
93
  0
POLYLINE
  8
GRID_MINOR
  6
CONTINUOUS
 62
     8
  5
94
 66
     1
 10
0.0
 20
0.0
 30
0.0
1001
VDEXTRAPARAM
1071
        0
1071
        0
1071
        0
1040
1.0
1000

1000

1001
VD_XPROPERTIES
  0
VERTEX
  8
GRID_MINOR
  6
CONTINUOUS
 62
     8
  5
95
 10
0.9
 20
0.0
 30
0.0
  0
VERTEX
  8
GRID_MINOR
  6
CONTINUOUS
 62
     8
  5
96
 10
0.9
 20
9.0
 30
0.0
  0
SEQEND
  8
0
  5
97
  0
POLYLINE
  8
GRID_MINOR
  6
CONTINUOUS
 62
     8
  5
98
 66
     1
 10
0.0
 20
0.0
 30
0.0
1001
VDEXTRAPARAM
1071
        0
1071
        0
1071
        0
1040
1.0
1000

1000

1001
VD_XPROPERTIES
  0
VERTEX
  8
GRID_MINOR
  6
CONTINUOUS
 62
     8
  5
99
 10
1.1
 20
0.0
 30
0.0
  0
VERTEX
  8
GRID_MINOR
  6
CONTINUOUS
 62
     8
  5
9A
 10
1.1
 20
9.0
 30
0.0
  0
SEQEND
  8
0
  5
9B
  0
POLYLINE
  8
GRID_MINOR
  6
CONTINUOUS
 62
     8
  5
9C
 66
     1
 10
0.0
 20
0.0
 30
0.0
1001
VDEXTRAPARAM
1071
        0
1071
        0
1071
        0
1040
1.0
1000

1000

1001
VD_XPROPERTIES
  0
VERTEX
  8
GRID_MINOR
  6
CONTINUOUS
 62
     8
  5
9D
 10
1.2
 20
0.0
 30
0.0
  0
VERTEX
  8
GRID_MINOR
  6
CONTINUOUS
 62
     8
  5
9E
 10
1.2
 20
9.0
 30
0.0
  0
SEQEND
  8
0
  5
9F
  0
POLYLINE
  8
GRID_MINOR
  6
CONTINUOUS
 62
     8
  5
A0
 66
     1
 10
0.0
 20
0.0
 30
0.0
1001
VDEXTRAPARAM
1071
        0
1071
        0
1071
        0
1040
1.0
1000

1000

1001
VD_XPROPERTIES
  0
VERTEX
  8
GRID_MINOR
  6
CONTINUOUS
 62
     8
  5
A1
 10
1.3
 20
0.0
 30
0.0
  0
VERTEX
  8
GRID_MINOR
  6
CONTINUOUS
 62
     8
  5
A2
 10
1.3
 20
9.0
 30
0.0
  0
SEQEND
  8
0
  5
A3
  0
POLYLINE
  8
GRID_MINOR
  6
CONTINUOUS
 62
     8
  5
A4
 66
     1
 10
0.0
 20
0.0
 30
0.0
1001
VDEXTRAPARAM
1071
        0
1071
        0
1071
        0
1040
1.0
1000

1000

1001
VD_XPROPERTIES
  0
VERTEX
  8
GRID_MINOR
  6
CONTINUOUS
 62
     8
  5
A5
 10
1.4
 20
0.0
 30
0.0
  0
VERTEX
  8
GRID_MINOR
  6
CONTINUOUS
 62
     8
  5
A6
 10
1.4
 20
9.0
 30
0.0
  0
SEQEND
  8
0
  5
A7
  0
POLYLINE
  8
GRID_MINOR
  6
CONTINUOUS
 62
     8
  5
A8
 66
     1
 10
0.0
 20
0.0
 30
0.0
1001
VDEXTRAPARAM
1071
        0
1071
        0
1071
        0
1040
1.0
1000

1000

1001
VD_XPROPERTIES
  0
VERTEX
  8
GRID_MINOR
  6
CONTINUOUS
 62
     8
  5
A9
 10
1.5
 20
0.0
 30
0.0
  0
VERTEX
  8
GRID_MINOR
  6
CONTINUOUS
 62
     8
  5
AA
 10
1.5
 20
9.0
 30
0.0
  0
SEQEND
  8
0
  5
AB
  0
POLYLINE
  8
GRID_MINOR
  6
CONTINUOUS
 62
     8
  5
AC
 66
     1
 10
0.0
 20
0.0
 30
0.0
1001
VDEXTRAPARAM
1071
        0
1071
        0
1071
        0
1040
1.0
1000

1000

1001
VD_XPROPERTIES
  0
VERTEX
  8
GRID_MINOR
  6
CONTINUOUS
 62
     8
  5
AD
 10
1.6
 20
0.0
 30
0.0
  0
VERTEX
  8
GRID_MINOR
  6
CONTINUOUS
 62
     8
  5
AE
 10
1.6
 20
9.0
 30
0.0
  0
SEQEND
  8
0
  5
AF
  0
POLYLINE
  8
GRID_MINOR
  6
CONTINUOUS
 62
     8
  5
B0
 66
     1
 10
0.0
 20
0.0
 30
0.0
1001
VDEXTRAPARAM
1071
        0
1071
        0
1071
        0
1040
1.0
1000

1000

1001
VD_XPROPERTIES
  0
VERTEX
  8
GRID_MINOR
  6
CONTINUOUS
 62
     8
  5
B1
 10
1.7
 20
0.0
 30
0.0
  0
VERTEX
  8
GRID_MINOR
  6
CONTINUOUS
 62
     8
  5
B2
 10
1.7
 20
9.0
 30
0.0
  0
SEQEND
  8
0
  5
B3
  0
POLYLINE
  8
GRID_MINOR
  6
CONTINUOUS
 62
     8
  5
B4
 66
     1
 10
0.0
 20
0.0
 30
0.0
1001
VDEXTRAPARAM
1071
        0
1071
        0
1071
        0
1040
1.0
1000

1000

1001
VD_XPROPERTIES
  0
VERTEX
  8
GRID_MINOR
  6
CONTINUOUS
 62
     8
  5
B5
 10
1.8
 20
0.0
 30
0.0
  0
VERTEX
  8
GRID_MINOR
  6
CONTINUOUS
 62
     8
  5
B6
 10
1.8
 20
9.0
 30
0.0
  0
SEQEND
  8
0
  5
B7
  0
POLYLINE
  8
GRID_MINOR
  6
CONTINUOUS
 62
     8
  5
B8
 66
     1
 10
0.0
 20
0.0
 30
0.0
1001
VDEXTRAPARAM
1071
        0
1071
        0
1071
        0
1040
1.0
1000

1000

1001
VD_XPROPERTIES
  0
VERTEX
  8
GRID_MINOR
  6
CONTINUOUS
 62
     8
  5
B9
 10
1.9
 20
0.0
 30
0.0
  0
VERTEX
  8
GRID_MINOR
  6
CONTINUOUS
 62
     8
  5
BA
 10
1.9
 20
9.0
 30
0.0
  0
SEQEND
  8
0
  5
BB
  0
POLYLINE
  8
GRID_MINOR
  6
CONTINUOUS
 62
     8
  5
BC
 66
     1
 10
0.0
 20
0.0
 30
0.0
1001
VDEXTRAPARAM
1071
        0
1071
        0
1071
        0
1040
1.0
1000

1000

1001
VD_XPROPERTIES
  0
VERTEX
  8
GRID_MINOR
  6
CONTINUOUS
 62
     8
  5
BD
 10
2.1
 20
0.0
 30
0.0
  0
VERTEX
  8
GRID_MINOR
  6
CONTINUOUS
 62
     8
  5
BE
 10
2.1
 20
9.0
 30
0.0
  0
SEQEND
  8
0
  5
BF
  0
POLYLINE
  8
GRID_MINOR
  6
CONTINUOUS
 62
     8
  5
C0
 66
     1
 10
0.0
 20
0.0
 30
0.0
1001
VDEXTRAPARAM
1071
        0
1071
        0
1071
        0
1040
1.0
1000

1000

1001
VD_XPROPERTIES
  0
VERTEX
  8
GRID_MINOR
  6
CONTINUOUS
 62
     8
  5
C1
 10
2.2
 20
0.0
 30
0.0
  0
VERTEX
  8
GRID_MINOR
  6
CONTINUOUS
 62
     8
  5
C2
 10
2.2
 20
9.0
 30
0.0
  0
SEQEND
  8
0
  5
C3
  0
POLYLINE
  8
GRID_MAJOR
  5
C4
 66
     1
 10
0.0
 20
0.0
 30
0.0
1001
VDEXTRAPARAM
1071
        0
1071
        0
1071
        0
1040
1.0
1000

1000

1001
VD_XPROPERTIES
  0
VERTEX
  8
GRID_MAJOR
  5
C5
 10
6.0
 20
0.0
 30
0.0
  0
VERTEX
  8
GRID_MAJOR
  5
C6
 10
6.0
 20
9.0
 30
0.0
  0
SEQEND
  8
0
  5
C7
  0
POLYLINE
  8
GRID_MAJOR
  5
C8
 66
     1
 10
0.0
 20
0.0
 30
0.0
1001
VDEXTRAPARAM
1071
        0
1071
        0
1071
        0
1040
1.0
1000

1000

1001
VD_XPROPERTIES
  0
VERTEX
  8
GRID_MAJOR
  5
C9
 10
5.0
 20
0.0
 30
0.0
  0
VERTEX
  8
GRID_MAJOR
  5
CA
 10
5.0
 20
9.0
 30
0.0
  0
SEQEND
  8
0
  5
CB
  0
POLYLINE
  8
GRID_MAJOR
  5
CC
 66
     1
 10
0.0
 20
0.0
 30
0.0
1001
VDEXTRAPARAM
1071
        0
1071
        0
1071
        0
1040
1.0
1000

1000

1001
VD_XPROPERTIES
  0
VERTEX
  8
GRID_MAJOR
  5
CD
 10
4.0
 20
0.0
 30
0.0
  0
VERTEX
  8
GRID_MAJOR
  5
CE
 10
4.0
 20
9.0
 30
0.0
  0
SEQEND
  8
0
  5
CF
  0
POLYLINE
  8
GRID_MAJOR
  5
D0
 66
     1
 10
0.0
 20
0.0
 30
0.0
1001
VDEXTRAPARAM
1071
        0
1071
        0
1071
        0
1040
1.0
1000

1000

1001
VD_XPROPERTIES
  0
VERTEX
  8
GRID_MAJOR
  5
D1
 10
3.0
 20
0.0
 30
0.0
  0
VERTEX
  8
GRID_MAJOR
  5
D2
 10
3.0
 20
9.0
 30
0.0
  0
SEQEND
  8
0
  5
D3
  0
POLYLINE
  8
GRID_MINOR
  6
CONTINUOUS
 62
     8
  5
D4
 66
     1
 10
0.0
 20
0.0
 30
0.0
1001
VDEXTRAPARAM
1071
        0
1071
        0
1071
        0
1040
1.0
1000

1000

1001
VD_XPROPERTIES
  0
VERTEX
  8
GRID_MINOR
  6
CONTINUOUS
 62
     8
  5
D5
 10
2.3
 20
0.0
 30
0.0
  0
VERTEX
  8
GRID_MINOR
  6
CONTINUOUS
 62
     8
  5
D6
 10
2.3
 20
9.0
 30
0.0
  0
SEQEND
  8
0
  5
D7
  0
POLYLINE
  8
GRID_MINOR
  6
CONTINUOUS
 62
     8
  5
D8
 66
     1
 10
0.0
 20
0.0
 30
0.0
1001
VDEXTRAPARAM
1071
        0
1071
        0
1071
        0
1040
1.0
1000

1000

1001
VD_XPROPERTIES
  0
VERTEX
  8
GRID_MINOR
  6
CONTINUOUS
 62
     8
  5
D9
 10
2.4
 20
0.0
 30
0.0
  0
VERTEX
  8
GRID_MINOR
  6
CONTINUOUS
 62
     8
  5
DA
 10
2.4
 20
9.0
 30
0.0
  0
SEQEND
  8
0
  5
DB
  0
POLYLINE
  8
GRID_MINOR
  6
CONTINUOUS
 62
     8
  5
DC
 66
     1
 10
0.0
 20
0.0
 30
0.0
1001
VDEXTRAPARAM
1071
        0
1071
        0
1071
        0
1040
1.0
1000

1000

1001
VD_XPROPERTIES
  0
VERTEX
  8
GRID_MINOR
  6
CONTINUOUS
 62
     8
  5
DD
 10
2.5
 20
0.0
 30
0.0
  0
VERTEX
  8
GRID_MINOR
  6
CONTINUOUS
 62
     8
  5
DE
 10
2.5
 20
9.0
 30
0.0
  0
SEQEND
  8
0
  5
DF
  0
POLYLINE
  8
GRID_MINOR
  6
CONTINUOUS
 62
     8
  5
E0
 66
     1
 10
0.0
 20
0.0
 30
0.0
1001
VDEXTRAPARAM
1071
        0
1071
        0
1071
        0
1040
1.0
1000

1000

1001
VD_XPROPERTIES
  0
VERTEX
  8
GRID_MINOR
  6
CONTINUOUS
 62
     8
  5
E1
 10
2.6
 20
0.0
 30
0.0
  0
VERTEX
  8
GRID_MINOR
  6
CONTINUOUS
 62
     8
  5
E2
 10
2.6
 20
9.0
 30
0.0
  0
SEQEND
  8
0
  5
E3
  0
POLYLINE
  8
GRID_MINOR
  6
CONTINUOUS
 62
     8
  5
E4
 66
     1
 10
0.0
 20
0.0
 30
0.0
1001
VDEXTRAPARAM
1071
        0
1071
        0
1071
        0
1040
1.0
1000

1000

1001
VD_XPROPERTIES
  0
VERTEX
  8
GRID_MINOR
  6
CONTINUOUS
 62
     8
  5
E5
 10
2.7
 20
0.0
 30
0.0
  0
VERTEX
  8
GRID_MINOR
  6
CONTINUOUS
 62
     8
  5
E6
 10
2.7
 20
9.0
 30
0.0
  0
SEQEND
  8
0
  5
E7
  0
POLYLINE
  8
GRID_MINOR
  6
CONTINUOUS
 62
     8
  5
E8
 66
     1
 10
0.0
 20
0.0
 30
0.0
1001
VDEXTRAPARAM
1071
        0
1071
        0
1071
        0
1040
1.0
1000

1000

1001
VD_XPROPERTIES
  0
VERTEX
  8
GRID_MINOR
  6
CONTINUOUS
 62
     8
  5
E9
 10
2.8
 20
0.0
 30
0.0
  0
VERTEX
  8
GRID_MINOR
  6
CONTINUOUS
 62
     8
  5
EA
 10
2.8
 20
9.0
 30
0.0
  0
SEQEND
  8
0
  5
EB
  0
POLYLINE
  8
GRID_MINOR
  6
CONTINUOUS
 62
     8
  5
EC
 66
     1
 10
0.0
 20
0.0
 30
0.0
1001
VDEXTRAPARAM
1071
        0
1071
        0
1071
        0
1040
1.0
1000

1000

1001
VD_XPROPERTIES
  0
VERTEX
  8
GRID_MINOR
  6
CONTINUOUS
 62
     8
  5
ED
 10
2.9
 20
0.0
 30
0.0
  0
VERTEX
  8
GRID_MINOR
  6
CONTINUOUS
 62
     8
  5
EE
 10
2.9
 20
9.0
 30
0.0
  0
SEQEND
  8
0
  5
EF
  0
POLYLINE
  8
GRID_MINOR
  6
CONTINUOUS
 62
     8
  5
F0
 66
     1
 10
0.0
 20
0.0
 30
0.0
1001
VDEXTRAPARAM
1071
        0
1071
        0
1071
        0
1040
1.0
1000

1000

1001
VD_XPROPERTIES
  0
VERTEX
  8
GRID_MINOR
  6
CONTINUOUS
 62
     8
  5
F1
 10
3.1
 20
0.0
 30
0.0
  0
VERTEX
  8
GRID_MINOR
  6
CONTINUOUS
 62
     8
  5
F2
 10
3.1
 20
9.0
 30
0.0
  0
SEQEND
  8
0
  5
F3
  0
POLYLINE
  8
GRID_MINOR
  6
CONTINUOUS
 62
     8
  5
F4
 66
     1
 10
0.0
 20
0.0
 30
0.0
1001
VDEXTRAPARAM
1071
        0
1071
        0
1071
        0
1040
1.0
1000

1000

1001
VD_XPROPERTIES
  0
VERTEX
  8
GRID_MINOR
  6
CONTINUOUS
 62
     8
  5
F5
 10
3.2
 20
0.0
 30
0.0
  0
VERTEX
  8
GRID_MINOR
  6
CONTINUOUS
 62
     8
  5
F6
 10
3.2
 20
9.0
 30
0.0
  0
SEQEND
  8
0
  5
F7
  0
POLYLINE
  8
GRID_MINOR
  6
CONTINUOUS
 62
     8
  5
F8
 66
     1
 10
0.0
 20
0.0
 30
0.0
1001
VDEXTRAPARAM
1071
        0
1071
        0
1071
        0
1040
1.0
1000

1000

1001
VD_XPROPERTIES
  0
VERTEX
  8
GRID_MINOR
  6
CONTINUOUS
 62
     8
  5
F9
 10
3.3
 20
0.0
 30
0.0
  0
VERTEX
  8
GRID_MINOR
  6
CONTINUOUS
 62
     8
  5
FA
 10
3.3
 20
9.0
 30
0.0
  0
SEQEND
  8
0
  5
FB
  0
POLYLINE
  8
GRID_MINOR
  6
CONTINUOUS
 62
     8
  5
FC
 66
     1
 10
0.0
 20
0.0
 30
0.0
1001
VDEXTRAPARAM
1071
        0
1071
        0
1071
        0
1040
1.0
1000

1000

1001
VD_XPROPERTIES
  0
VERTEX
  8
GRID_MINOR
  6
CONTINUOUS
 62
     8
  5
FD
 10
3.4
 20
0.0
 30
0.0
  0
VERTEX
  8
GRID_MINOR
  6
CONTINUOUS
 62
     8
  5
FE
 10
3.4
 20
9.0
 30
0.0
  0
SEQEND
  8
0
  5
FF
  0
POLYLINE
  8
GRID_MINOR
  6
CONTINUOUS
 62
     8
  5
100
 66
     1
 10
0.0
 20
0.0
 30
0.0
1001
VDEXTRAPARAM
1071
        0
1071
        0
1071
        0
1040
1.0
1000

1000

1001
VD_XPROPERTIES
  0
VERTEX
  8
GRID_MINOR
  6
CONTINUOUS
 62
     8
  5
101
 10
3.5
 20
0.0
 30
0.0
  0
VERTEX
  8
GRID_MINOR
  6
CONTINUOUS
 62
     8
  5
102
 10
3.5
 20
9.0
 30
0.0
  0
SEQEND
  8
0
  5
103
  0
POLYLINE
  8
GRID_MINOR
  6
CONTINUOUS
 62
     8
  5
104
 66
     1
 10
0.0
 20
0.0
 30
0.0
1001
VDEXTRAPARAM
1071
        0
1071
        0
1071
        0
1040
1.0
1000

1000

1001
VD_XPROPERTIES
  0
VERTEX
  8
GRID_MINOR
  6
CONTINUOUS
 62
     8
  5
105
 10
3.6
 20
0.0
 30
0.0
  0
VERTEX
  8
GRID_MINOR
  6
CONTINUOUS
 62
     8
  5
106
 10
3.6
 20
9.0
 30
0.0
  0
SEQEND
  8
0
  5
107
  0
POLYLINE
  8
GRID_MINOR
  6
CONTINUOUS
 62
     8
  5
108
 66
     1
 10
0.0
 20
0.0
 30
0.0
1001
VDEXTRAPARAM
1071
        0
1071
        0
1071
        0
1040
1.0
1000

1000

1001
VD_XPROPERTIES
  0
VERTEX
  8
GRID_MINOR
  6
CONTINUOUS
 62
     8
  5
109
 10
3.7
 20
0.0
 30
0.0
  0
VERTEX
  8
GRID_MINOR
  6
CONTINUOUS
 62
     8
  5
10A
 10
3.7
 20
9.0
 30
0.0
  0
SEQEND
  8
0
  5
10B
  0
POLYLINE
  8
GRID_MINOR
  6
CONTINUOUS
 62
     8
  5
10C
 66
     1
 10
0.0
 20
0.0
 30
0.0
1001
VDEXTRAPARAM
1071
        0
1071
        0
1071
        0
1040
1.0
1000

1000

1001
VD_XPROPERTIES
  0
VERTEX
  8
GRID_MINOR
  6
CONTINUOUS
 62
     8
  5
10D
 10
3.8
 20
0.0
 30
0.0
  0
VERTEX
  8
GRID_MINOR
  6
CONTINUOUS
 62
     8
  5
10E
 10
3.8
 20
9.0
 30
0.0
  0
SEQEND
  8
0
  5
10F
  0
POLYLINE
  8
GRID_MINOR
  6
CONTINUOUS
 62
     8
  5
110
 66
     1
 10
0.0
 20
0.0
 30
0.0
1001
VDEXTRAPARAM
1071
        0
1071
        0
1071
        0
1040
1.0
1000

1000

1001
VD_XPROPERTIES
  0
VERTEX
  8
GRID_MINOR
  6
CONTINUOUS
 62
     8
  5
111
 10
3.9
 20
0.0
 30
0.0
  0
VERTEX
  8
GRID_MINOR
  6
CONTINUOUS
 62
     8
  5
112
 10
3.9
 20
9.0
 30
0.0
  0
SEQEND
  8
0
  5
113
  0
POLYLINE
  8
GRID_MINOR
  6
CONTINUOUS
 62
     8
  5
114
 66
     1
 10
0.0
 20
0.0
 30
0.0
1001
VDEXTRAPARAM
1071
        0
1071
        0
1071
        0
1040
1.0
1000

1000

1001
VD_XPROPERTIES
  0
VERTEX
  8
GRID_MINOR
  6
CONTINUOUS
 62
     8
  5
115
 10
4.1
 20
0.0
 30
0.0
  0
VERTEX
  8
GRID_MINOR
  6
CONTINUOUS
 62
     8
  5
116
 10
4.1
 20
9.0
 30
0.0
  0
SEQEND
  8
0
  5
117
  0
POLYLINE
  8
GRID_MINOR
  6
CONTINUOUS
 62
     8
  5
118
 66
     1
 10
0.0
 20
0.0
 30
0.0
1001
VDEXTRAPARAM
1071
        0
1071
        0
1071
        0
1040
1.0
1000

1000

1001
VD_XPROPERTIES
  0
VERTEX
  8
GRID_MINOR
  6
CONTINUOUS
 62
     8
  5
119
 10
4.2
 20
0.0
 30
0.0
  0
VERTEX
  8
GRID_MINOR
  6
CONTINUOUS
 62
     8
  5
11A
 10
4.2
 20
9.0
 30
0.0
  0
SEQEND
  8
0
  5
11B
  0
POLYLINE
  8
GRID_MINOR
  6
CONTINUOUS
 62
     8
  5
11C
 66
     1
 10
0.0
 20
0.0
 30
0.0
1001
VDEXTRAPARAM
1071
        0
1071
        0
1071
        0
1040
1.0
1000

1000

1001
VD_XPROPERTIES
  0
VERTEX
  8
GRID_MINOR
  6
CONTINUOUS
 62
     8
  5
11D
 10
4.3
 20
0.0
 30
0.0
  0
VERTEX
  8
GRID_MINOR
  6
CONTINUOUS
 62
     8
  5
11E
 10
4.3
 20
9.0
 30
0.0
  0
SEQEND
  8
0
  5
11F
  0
POLYLINE
  8
GRID_MINOR
  6
CONTINUOUS
 62
     8
  5
120
 66
     1
 10
0.0
 20
0.0
 30
0.0
1001
VDEXTRAPARAM
1071
        0
1071
        0
1071
        0
1040
1.0
1000

1000

1001
VD_XPROPERTIES
  0
VERTEX
  8
GRID_MINOR
  6
CONTINUOUS
 62
     8
  5
121
 10
4.4
 20
0.0
 30
0.0
  0
VERTEX
  8
GRID_MINOR
  6
CONTINUOUS
 62
     8
  5
122
 10
4.4
 20
9.0
 30
0.0
  0
SEQEND
  8
0
  5
123
  0
POLYLINE
  8
GRID_MINOR
  6
CONTINUOUS
 62
     8
  5
124
 66
     1
 10
0.0
 20
0.0
 30
0.0
1001
VDEXTRAPARAM
1071
        0
1071
        0
1071
        0
1040
1.0
1000

1000

1001
VD_XPROPERTIES
  0
VERTEX
  8
GRID_MINOR
  6
CONTINUOUS
 62
     8
  5
125
 10
4.5
 20
0.0
 30
0.0
  0
VERTEX
  8
GRID_MINOR
  6
CONTINUOUS
 62
     8
  5
126
 10
4.5
 20
9.0
 30
0.0
  0
SEQEND
  8
0
  5
127
  0
POLYLINE
  8
GRID_MINOR
  6
CONTINUOUS
 62
     8
  5
128
 66
     1
 10
0.0
 20
0.0
 30
0.0
1001
VDEXTRAPARAM
1071
        0
1071
        0
1071
        0
1040
1.0
1000

1000

1001
VD_XPROPERTIES
  0
VERTEX
  8
GRID_MINOR
  6
CONTINUOUS
 62
     8
  5
129
 10
4.6
 20
0.0
 30
0.0
  0
VERTEX
  8
GRID_MINOR
  6
CONTINUOUS
 62
     8
  5
12A
 10
4.6
 20
9.0
 30
0.0
  0
SEQEND
  8
0
  5
12B
  0
POLYLINE
  8
GRID_MINOR
  6
CONTINUOUS
 62
     8
  5
12C
 66
     1
 10
0.0
 20
0.0
 30
0.0
1001
VDEXTRAPARAM
1071
        0
1071
        0
1071
        0
1040
1.0
1000

1000

1001
VD_XPROPERTIES
  0
VERTEX
  8
GRID_MINOR
  6
CONTINUOUS
 62
     8
  5
12D
 10
4.7
 20
0.0
 30
0.0
  0
VERTEX
  8
GRID_MINOR
  6
CONTINUOUS
 62
     8
  5
12E
 10
4.7
 20
9.0
 30
0.0
  0
SEQEND
  8
0
  5
12F
  0
POLYLINE
  8
GRID_MINOR
  6
CONTINUOUS
 62
     8
  5
130
 66
     1
 10
0.0
 20
0.0
 30
0.0
1001
VDEXTRAPARAM
1071
        0
1071
        0
1071
        0
1040
1.0
1000

1000

1001
VD_XPROPERTIES
  0
VERTEX
  8
GRID_MINOR
  6
CONTINUOUS
 62
     8
  5
131
 10
4.8
 20
0.0
 30
0.0
  0
VERTEX
  8
GRID_MINOR
  6
CONTINUOUS
 62
     8
  5
132
 10
4.8
 20
9.0
 30
0.0
  0
SEQEND
  8
0
  5
133
  0
POLYLINE
  8
GRID_MINOR
  6
CONTINUOUS
 62
     8
  5
134
 66
     1
 10
0.0
 20
0.0
 30
0.0
1001
VDEXTRAPARAM
1071
        0
1071
        0
1071
        0
1040
1.0
1000

1000

1001
VD_XPROPERTIES
  0
VERTEX
  8
GRID_MINOR
  6
CONTINUOUS
 62
     8
  5
135
 10
4.9
 20
0.0
 30
0.0
  0
VERTEX
  8
GRID_MINOR
  6
CONTINUOUS
 62
     8
  5
136
 10
4.9
 20
9.0
 30
0.0
  0
SEQEND
  8
0
  5
137
  0
POLYLINE
  8
GRID_MINOR
  6
CONTINUOUS
 62
     8
  5
138
 66
     1
 10
0.0
 20
0.0
 30
0.0
1001
VDEXTRAPARAM
1071
        0
1071
        0
1071
        0
1040
1.0
1000

1000

1001
VD_XPROPERTIES
  0
VERTEX
  8
GRID_MINOR
  6
CONTINUOUS
 62
     8
  5
139
 10
5.1
 20
0.0
 30
0.0
  0
VERTEX
  8
GRID_MINOR
  6
CONTINUOUS
 62
     8
  5
13A
 10
5.1
 20
9.0
 30
0.0
  0
SEQEND
  8
0
  5
13B
  0
POLYLINE
  8
GRID_MINOR
  6
CONTINUOUS
 62
     8
  5
13C
 66
     1
 10
0.0
 20
0.0
 30
0.0
1001
VDEXTRAPARAM
1071
        0
1071
        0
1071
        0
1040
1.0
1000

1000

1001
VD_XPROPERTIES
  0
VERTEX
  8
GRID_MINOR
  6
CONTINUOUS
 62
     8
  5
13D
 10
5.2
 20
0.0
 30
0.0
  0
VERTEX
  8
GRID_MINOR
  6
CONTINUOUS
 62
     8
  5
13E
 10
5.2
 20
9.0
 30
0.0
  0
SEQEND
  8
0
  5
13F
  0
POLYLINE
  8
GRID_MINOR
  6
CONTINUOUS
 62
     8
  5
140
 66
     1
 10
0.0
 20
0.0
 30
0.0
1001
VDEXTRAPARAM
1071
        0
1071
        0
1071
        0
1040
1.0
1000

1000

1001
VD_XPROPERTIES
  0
VERTEX
  8
GRID_MINOR
  6
CONTINUOUS
 62
     8
  5
141
 10
5.3
 20
0.0
 30
0.0
  0
VERTEX
  8
GRID_MINOR
  6
CONTINUOUS
 62
     8
  5
142
 10
5.3
 20
9.0
 30
0.0
  0
SEQEND
  8
0
  5
143
  0
POLYLINE
  8
GRID_MINOR
  6
CONTINUOUS
 62
     8
  5
144
 66
     1
 10
0.0
 20
0.0
 30
0.0
1001
VDEXTRAPARAM
1071
        0
1071
        0
1071
        0
1040
1.0
1000

1000

1001
VD_XPROPERTIES
  0
VERTEX
  8
GRID_MINOR
  6
CONTINUOUS
 62
     8
  5
145
 10
5.4
 20
0.0
 30
0.0
  0
VERTEX
  8
GRID_MINOR
  6
CONTINUOUS
 62
     8
  5
146
 10
5.4
 20
9.0
 30
0.0
  0
SEQEND
  8
0
  5
147
  0
POLYLINE
  8
GRID_MINOR
  6
CONTINUOUS
 62
     8
  5
148
 66
     1
 10
0.0
 20
0.0
 30
0.0
1001
VDEXTRAPARAM
1071
        0
1071
        0
1071
        0
1040
1.0
1000

1000

1001
VD_XPROPERTIES
  0
VERTEX
  8
GRID_MINOR
  6
CONTINUOUS
 62
     8
  5
149
 10
5.5
 20
0.0
 30
0.0
  0
VERTEX
  8
GRID_MINOR
  6
CONTINUOUS
 62
     8
  5
14A
 10
5.5
 20
9.0
 30
0.0
  0
SEQEND
  8
0
  5
14B
  0
POLYLINE
  8
GRID_MINOR
  6
CONTINUOUS
 62
     8
  5
14C
 66
     1
 10
0.0
 20
0.0
 30
0.0
1001
VDEXTRAPARAM
1071
        0
1071
        0
1071
        0
1040
1.0
1000

1000

1001
VD_XPROPERTIES
  0
VERTEX
  8
GRID_MINOR
  6
CONTINUOUS
 62
     8
  5
14D
 10
5.6
 20
0.0
 30
0.0
  0
VERTEX
  8
GRID_MINOR
  6
CONTINUOUS
 62
     8
  5
14E
 10
5.6
 20
9.0
 30
0.0
  0
SEQEND
  8
0
  5
14F
  0
POLYLINE
  8
GRID_MINOR
  6
CONTINUOUS
 62
     8
  5
150
 66
     1
 10
0.0
 20
0.0
 30
0.0
1001
VDEXTRAPARAM
1071
        0
1071
        0
1071
        0
1040
1.0
1000

1000

1001
VD_XPROPERTIES
  0
VERTEX
  8
GRID_MINOR
  6
CONTINUOUS
 62
     8
  5
151
 10
5.7
 20
0.0
 30
0.0
  0
VERTEX
  8
GRID_MINOR
  6
CONTINUOUS
 62
     8
  5
152
 10
5.7
 20
9.0
 30
0.0
  0
SEQEND
  8
0
  5
153
  0
POLYLINE
  8
GRID_MINOR
  6
CONTINUOUS
 62
     8
  5
154
 66
     1
 10
0.0
 20
0.0
 30
0.0
1001
VDEXTRAPARAM
1071
        0
1071
        0
1071
        0
1040
1.0
1000

1000

1001
VD_XPROPERTIES
  0
VERTEX
  8
GRID_MINOR
  6
CONTINUOUS
 62
     8
  5
155
 10
5.8
 20
0.0
 30
0.0
  0
VERTEX
  8
GRID_MINOR
  6
CONTINUOUS
 62
     8
  5
156
 10
5.8
 20
9.0
 30
0.0
  0
SEQEND
  8
0
  5
157
  0
POLYLINE
  8
GRID_MINOR
  6
CONTINUOUS
 62
     8
  5
158
 66
     1
 10
0.0
 20
0.0
 30
0.0
1001
VDEXTRAPARAM
1071
        0
1071
        0
1071
        0
1040
1.0
1000

1000

1001
VD_XPROPERTIES
  0
VERTEX
  8
GRID_MINOR
  6
CONTINUOUS
 62
     8
  5
159
 10
5.9
 20
0.0
 30
0.0
  0
VERTEX
  8
GRID_MINOR
  6
CONTINUOUS
 62
     8
  5
15A
 10
5.9
 20
9.0
 30
0.0
  0
SEQEND
  8
0
  5
15B
  0
POLYLINE
  8
GRID_MINOR
  6
CONTINUOUS
 62
     8
  5
15C
 66
     1
 10
0.0
 20
0.0
 30
0.0
1001
VDEXTRAPARAM
1071
        0
1071
        0
1071
        0
1040
1.0
1000

1000

1001
VD_XPROPERTIES
  0
VERTEX
  8
GRID_MINOR
  6
CONTINUOUS
 62
     8
  5
15D
 10
6.1
 20
0.0
 30
0.0
  0
VERTEX
  8
GRID_MINOR
  6
CONTINUOUS
 62
     8
  5
15E
 10
6.1
 20
9.0
 30
0.0
  0
SEQEND
  8
0
  5
15F
  0
POLYLINE
  8
GRID_MINOR
  6
CONTINUOUS
 62
     8
  5
160
 66
     1
 10
0.0
 20
0.0
 30
0.0
1001
VDEXTRAPARAM
1071
        0
1071
        0
1071
        0
1040
1.0
1000

1000

1001
VD_XPROPERTIES
  0
VERTEX
  8
GRID_MINOR
  6
CONTINUOUS
 62
     8
  5
161
 10
6.2
 20
0.0
 30
0.0
  0
VERTEX
  8
GRID_MINOR
  6
CONTINUOUS
 62
     8
  5
162
 10
6.2
 20
9.0
 30
0.0
  0
SEQEND
  8
0
  5
163
  0
POLYLINE
  8
GRID_MINOR
  6
CONTINUOUS
 62
     8
  5
164
 66
     1
 10
0.0
 20
0.0
 30
0.0
1001
VDEXTRAPARAM
1071
        0
1071
        0
1071
        0
1040
1.0
1000

1000

1001
VD_XPROPERTIES
  0
VERTEX
  8
GRID_MINOR
  6
CONTINUOUS
 62
     8
  5
165
 10
6.3
 20
0.0
 30
0.0
  0
VERTEX
  8
GRID_MINOR
  6
CONTINUOUS
 62
     8
  5
166
 10
6.3
 20
9.0
 30
0.0
  0
SEQEND
  8
0
  5
167
  0
POLYLINE
  8
GRID_MINOR
  6
CONTINUOUS
 62
     8
  5
168
 66
     1
 10
0.0
 20
0.0
 30
0.0
1001
VDEXTRAPARAM
1071
        0
1071
        0
1071
        0
1040
1.0
1000

1000

1001
VD_XPROPERTIES
  0
VERTEX
  8
GRID_MINOR
  6
CONTINUOUS
 62
     8
  5
169
 10
6.4
 20
0.0
 30
0.0
  0
VERTEX
  8
GRID_MINOR
  6
CONTINUOUS
 62
     8
  5
16A
 10
6.4
 20
9.0
 30
0.0
  0
SEQEND
  8
0
  5
16B
  0
POLYLINE
  8
GRID_MINOR
  6
CONTINUOUS
 62
     8
  5
16C
 66
     1
 10
0.0
 20
0.0
 30
0.0
1001
VDEXTRAPARAM
1071
        0
1071
        0
1071
        0
1040
1.0
1000

1000

1001
VD_XPROPERTIES
  0
VERTEX
  8
GRID_MINOR
  6
CONTINUOUS
 62
     8
  5
16D
 10
6.5
 20
0.0
 30
0.0
  0
VERTEX
  8
GRID_MINOR
  6
CONTINUOUS
 62
     8
  5
16E
 10
6.5
 20
9.0
 30
0.0
  0
SEQEND
  8
0
  5
16F
  0
POLYLINE
  8
GRID_MINOR
  6
CONTINUOUS
 62
     8
  5
170
 66
     1
 10
0.0
 20
0.0
 30
0.0
1001
VDEXTRAPARAM
1071
        0
1071
        0
1071
        0
1040
1.0
1000

1000

1001
VD_XPROPERTIES
  0
VERTEX
  8
GRID_MINOR
  6
CONTINUOUS
 62
     8
  5
171
 10
6.6
 20
0.0
 30
0.0
  0
VERTEX
  8
GRID_MINOR
  6
CONTINUOUS
 62
     8
  5
172
 10
6.6
 20
9.0
 30
0.0
  0
SEQEND
  8
0
  5
173
  0
POLYLINE
  8
GRID_MINOR
  6
CONTINUOUS
 62
     8
  5
174
 66
     1
 10
0.0
 20
0.0
 30
0.0
1001
VDEXTRAPARAM
1071
        0
1071
        0
1071
        0
1040
1.0
1000

1000

1001
VD_XPROPERTIES
  0
VERTEX
  8
GRID_MINOR
  6
CONTINUOUS
 62
     8
  5
175
 10
6.7
 20
0.0
 30
0.0
  0
VERTEX
  8
GRID_MINOR
  6
CONTINUOUS
 62
     8
  5
176
 10
6.7
 20
9.0
 30
0.0
  0
SEQEND
  8
0
  5
177
  0
POLYLINE
  8
GRID_MAJOR
  5
178
 66
     1
 10
0.0
 20
0.0
 30
0.0
1001
VDEXTRAPARAM
1071
        0
1071
        0
1071
        0
1040
1.0
1000

1000

1001
VD_XPROPERTIES
  0
VERTEX
  8
GRID_MAJOR
  5
179
 10
7.0
 20
0.0
 30
0.0
  0
VERTEX
  8
GRID_MAJOR
  5
17A
 10
7.0
 20
9.0
 30
0.0
  0
SEQEND
  8
0
  5
17B
  0
POLYLINE
  8
GRID_MINOR
  6
CONTINUOUS
 62
     8
  5
17C
 66
     1
 10
0.0
 20
0.0
 30
0.0
1001
VDEXTRAPARAM
1071
        0
1071
        0
1071
        0
1040
1.0
1000

1000

1001
VD_XPROPERTIES
  0
VERTEX
  8
GRID_MINOR
  6
CONTINUOUS
 62
     8
  5
17D
 10
6.8
 20
0.0
 30
0.0
  0
VERTEX
  8
GRID_MINOR
  6
CONTINUOUS
 62
     8
  5
17E
 10
6.8
 20
9.0
 30
0.0
  0
SEQEND
  8
0
  5
17F
  0
POLYLINE
  8
GRID_MINOR
  6
CONTINUOUS
 62
     8
  5
180
 66
     1
 10
0.0
 20
0.0
 30
0.0
1001
VDEXTRAPARAM
1071
        0
1071
        0
1071
        0
1040
1.0
1000

1000

1001
VD_XPROPERTIES
  0
VERTEX
  8
GRID_MINOR
  6
CONTINUOUS
 62
     8
  5
181
 10
6.9
 20
0.0
 30
0.0
  0
VERTEX
  8
GRID_MINOR
  6
CONTINUOUS
 62
     8
  5
182
 10
6.9
 20
9.0
 30
0.0
  0
SEQEND
  8
0
  5
183
  0
POLYLINE
  8
GRID_MINOR
  6
CONTINUOUS
 62
     8
  5
184
 66
     1
 10
0.0
 20
0.0
 30
0.0
1001
VDEXTRAPARAM
1071
        0
1071
        0
1071
        0
1040
1.0
1000

1000

1001
VD_XPROPERTIES
  0
VERTEX
  8
GRID_MINOR
  6
CONTINUOUS
 62
     8
  5
185
 10
7.1
 20
0.0
 30
0.0
  0
VERTEX
  8
GRID_MINOR
  6
CONTINUOUS
 62
     8
  5
186
 10
7.1
 20
9.0
 30
0.0
  0
SEQEND
  8
0
  5
187
  0
POLYLINE
  8
GRID_MINOR
  6
CONTINUOUS
 62
     8
  5
188
 66
     1
 10
0.0
 20
0.0
 30
0.0
1001
VDEXTRAPARAM
1071
        0
1071
        0
1071
        0
1040
1.0
1000

1000

1001
VD_XPROPERTIES
  0
VERTEX
  8
GRID_MINOR
  6
CONTINUOUS
 62
     8
  5
189
 10
7.2
 20
0.0
 30
0.0
  0
VERTEX
  8
GRID_MINOR
  6
CONTINUOUS
 62
     8
  5
18A
 10
7.2
 20
9.0
 30
0.0
  0
SEQEND
  8
0
  5
18B
  0
POLYLINE
  8
GRID_MINOR
  6
CONTINUOUS
 62
     8
  5
18C
 66
     1
 10
0.0
 20
0.0
 30
0.0
1001
VDEXTRAPARAM
1071
        0
1071
        0
1071
        0
1040
1.0
1000

1000

1001
VD_XPROPERTIES
  0
VERTEX
  8
GRID_MINOR
  6
CONTINUOUS
 62
     8
  5
18D
 10
7.3
 20
0.0
 30
0.0
  0
VERTEX
  8
GRID_MINOR
  6
CONTINUOUS
 62
     8
  5
18E
 10
7.3
 20
9.0
 30
0.0
  0
SEQEND
  8
0
  5
18F
  0
POLYLINE
  8
GRID_MINOR
  6
CONTINUOUS
 62
     8
  5
190
 66
     1
 10
0.0
 20
0.0
 30
0.0
1001
VDEXTRAPARAM
1071
        0
1071
        0
1071
        0
1040
1.0
1000

1000

1001
VD_XPROPERTIES
  0
VERTEX
  8
GRID_MINOR
  6
CONTINUOUS
 62
     8
  5
191
 10
7.4
 20
0.0
 30
0.0
  0
VERTEX
  8
GRID_MINOR
  6
CONTINUOUS
 62
     8
  5
192
 10
7.4
 20
9.0
 30
0.0
  0
SEQEND
  8
0
  5
193
  0
POLYLINE
  8
GRID_MINOR
  6
CONTINUOUS
 62
     8
  5
194
 66
     1
 10
0.0
 20
0.0
 30
0.0
1001
VDEXTRAPARAM
1071
        0
1071
        0
1071
        0
1040
1.0
1000

1000

1001
VD_XPROPERTIES
  0
VERTEX
  8
GRID_MINOR
  6
CONTINUOUS
 62
     8
  5
195
 10
7.5
 20
0.0
 30
0.0
  0
VERTEX
  8
GRID_MINOR
  6
CONTINUOUS
 62
     8
  5
196
 10
7.5
 20
9.0
 30
0.0
  0
SEQEND
  8
0
  5
197
  0
POLYLINE
  8
BORDERLINE
  5
198
 66
     1
 10
0.0
 20
0.0
 30
0.0
1001
VDEXTRAPARAM
1071
        0
1071
        0
1071
        0
1040
1.0
1000

1000

1001
VD_XPROPERTIES
  0
VERTEX
  8
BORDERLINE
  5
199
 10
13.5
 20
-0.75
 30
0.0
  0
VERTEX
  8
BORDERLINE
  5
19A
 10
13.5
 20
9.25
 30
0.0
  0
SEQEND
  8
0
  5
19B
  0
LINE
  8
BORDERLINE
  5
19C
 10
14.0
 20
3.4
 30
0.0
 11
14.0
 21
9.25
 31
0.0
1001
VD_XPROPERTIES
  0
POLYLINE
  8
GRID_MAJOR
  5
19D
 66
     1
 10
0.0
 20
0.0
 30
0.0
1001
VDEXTRAPARAM
1071
        0
1071
        0
1071
        0
1040
1.0
1000

1000

1001
VD_XPROPERTIES
  0
VERTEX
  8
GRID_MAJOR
  5
19E
 10
13.0
 20
0.0
 30
0.0
  0
VERTEX
  8
GRID_MAJOR
  5
19F
 10
13.0
 20
9.0
 30
0.0
  0
SEQEND
  8
0
  5
1A0
  0
POLYLINE
  8
GRID_MAJOR
  5
1A1
 66
     1
 10
0.0
 20
0.0
 30
0.0
1001
VDEXTRAPARAM
1071
        0
1071
        0
1071
        0
1040
1.0
1000

1000

1001
VD_XPROPERTIES
  0
VERTEX
  8
GRID_MAJOR
  5
1A2
 10
10.0
 20
0.0
 30
0.0
  0
VERTEX
  8
GRID_MAJOR
  5
1A3
 10
10.0
 20
9.0
 30
0.0
  0
SEQEND
  8
0
  5
1A4
  0
POLYLINE
  8
GRID_MAJOR
  5
1A5
 66
     1
 10
0.0
 20
0.0
 30
0.0
1001
VDEXTRAPARAM
1071
        0
1071
        0
1071
        0
1040
1.0
1000

1000

1001
VD_XPROPERTIES
  0
VERTEX
  8
GRID_MAJOR
  5
1A6
 10
9.0
 20
0.0
 30
0.0
  0
VERTEX
  8
GRID_MAJOR
  5
1A7
 10
9.0
 20
9.0
 30
0.0
  0
SEQEND
  8
0
  5
1A8
  0
POLYLINE
  8
GRID_MAJOR
  5
1A9
 66
     1
 10
0.0
 20
0.0
 30
0.0
1001
VDEXTRAPARAM
1071
        0
1071
        0
1071
        0
1040
1.0
1000

1000

1001
VD_XPROPERTIES
  0
VERTEX
  8
GRID_MAJOR
  5
1AA
 10
8.0
 20
0.0
 30
0.0
  0
VERTEX
  8
GRID_MAJOR
  5
1AB
 10
8.0
 20
9.0
 30
0.0
  0
SEQEND
  8
0
  5
1AC
  0
POLYLINE
  8
GRID_MINOR
  6
CONTINUOUS
 62
     8
  5
1AD
 66
     1
 10
0.0
 20
0.0
 30
0.0
1001
VDEXTRAPARAM
1071
        0
1071
        0
1071
        0
1040
1.0
1000

1000

1001
VD_XPROPERTIES
  0
VERTEX
  8
GRID_MINOR
  6
CONTINUOUS
 62
     8
  5
1AE
 10
7.8
 20
0.0
 30
0.0
  0
VERTEX
  8
GRID_MINOR
  6
CONTINUOUS
 62
     8
  5
1AF
 10
7.8
 20
9.0
 30
0.0
  0
SEQEND
  8
0
  5
1B0
  0
POLYLINE
  8
GRID_MINOR
  6
CONTINUOUS
 62
     8
  5
1B1
 66
     1
 10
0.0
 20
0.0
 30
0.0
1001
VDEXTRAPARAM
1071
        0
1071
        0
1071
        0
1040
1.0
1000

1000

1001
VD_XPROPERTIES
  0
VERTEX
  8
GRID_MINOR
  6
CONTINUOUS
 62
     8
  5
1B2
 10
7.9
 20
0.0
 30
0.0
  0
VERTEX
  8
GRID_MINOR
  6
CONTINUOUS
 62
     8
  5
1B3
 10
7.9
 20
9.0
 30
0.0
  0
SEQEND
  8
0
  5
1B4
  0
POLYLINE
  8
GRID_MINOR
  6
CONTINUOUS
 62
     8
  5
1B5
 66
     1
 10
0.0
 20
0.0
 30
0.0
1001
VDEXTRAPARAM
1071
        0
1071
        0
1071
        0
1040
1.0
1000

1000

1001
VD_XPROPERTIES
  0
VERTEX
  8
GRID_MINOR
  6
CONTINUOUS
 62
     8
  5
1B6
 10
8.1
 20
0.0
 30
0.0
  0
VERTEX
  8
GRID_MINOR
  6
CONTINUOUS
 62
     8
  5
1B7
 10
8.1
 20
9.0
 30
0.0
  0
SEQEND
  8
0
  5
1B8
  0
POLYLINE
  8
GRID_MINOR
  6
CONTINUOUS
 62
     8
  5
1B9
 66
     1
 10
0.0
 20
0.0
 30
0.0
1001
VDEXTRAPARAM
1071
        0
1071
        0
1071
        0
1040
1.0
1000

1000

1001
VD_XPROPERTIES
  0
VERTEX
  8
GRID_MINOR
  6
CONTINUOUS
 62
     8
  5
1BA
 10
8.2
 20
0.0
 30
0.0
  0
VERTEX
  8
GRID_MINOR
  6
CONTINUOUS
 62
     8
  5
1BB
 10
8.2
 20
9.0
 30
0.0
  0
SEQEND
  8
0
  5
1BC
  0
POLYLINE
  8
GRID_MINOR
  6
CONTINUOUS
 62
     8
  5
1BD
 66
     1
 10
0.0
 20
0.0
 30
0.0
1001
VDEXTRAPARAM
1071
        0
1071
        0
1071
        0
1040
1.0
1000

1000

1001
VD_XPROPERTIES
  0
VERTEX
  8
GRID_MINOR
  6
CONTINUOUS
 62
     8
  5
1BE
 10
8.3
 20
0.0
 30
0.0
  0
VERTEX
  8
GRID_MINOR
  6
CONTINUOUS
 62
     8
  5
1BF
 10
8.3
 20
9.0
 30
0.0
  0
SEQEND
  8
0
  5
1C0
  0
POLYLINE
  8
GRID_MINOR
  6
CONTINUOUS
 62
     8
  5
1C1
 66
     1
 10
0.0
 20
0.0
 30
0.0
1001
VDEXTRAPARAM
1071
        0
1071
        0
1071
        0
1040
1.0
1000

1000

1001
VD_XPROPERTIES
  0
VERTEX
  8
GRID_MINOR
  6
CONTINUOUS
 62
     8
  5
1C2
 10
8.4
 20
0.0
 30
0.0
  0
VERTEX
  8
GRID_MINOR
  6
CONTINUOUS
 62
     8
  5
1C3
 10
8.4
 20
9.0
 30
0.0
  0
SEQEND
  8
0
  5
1C4
  0
POLYLINE
  8
GRID_MINOR
  6
CONTINUOUS
 62
     8
  5
1C5
 66
     1
 10
0.0
 20
0.0
 30
0.0
1001
VDEXTRAPARAM
1071
        0
1071
        0
1071
        0
1040
1.0
1000

1000

1001
VD_XPROPERTIES
  0
VERTEX
  8
GRID_MINOR
  6
CONTINUOUS
 62
     8
  5
1C6
 10
8.5
 20
0.0
 30
0.0
  0
VERTEX
  8
GRID_MINOR
  6
CONTINUOUS
 62
     8
  5
1C7
 10
8.5
 20
9.0
 30
0.0
  0
SEQEND
  8
0
  5
1C8
  0
POLYLINE
  8
GRID_MINOR
  6
CONTINUOUS
 62
     8
  5
1C9
 66
     1
 10
0.0
 20
0.0
 30
0.0
1001
VDEXTRAPARAM
1071
        0
1071
        0
1071
        0
1040
1.0
1000

1000

1001
VD_XPROPERTIES
  0
VERTEX
  8
GRID_MINOR
  6
CONTINUOUS
 62
     8
  5
1CA
 10
8.6
 20
0.0
 30
0.0
  0
VERTEX
  8
GRID_MINOR
  6
CONTINUOUS
 62
     8
  5
1CB
 10
8.6
 20
9.0
 30
0.0
  0
SEQEND
  8
0
  5
1CC
  0
POLYLINE
  8
GRID_MINOR
  6
CONTINUOUS
 62
     8
  5
1CD
 66
     1
 10
0.0
 20
0.0
 30
0.0
1001
VDEXTRAPARAM
1071
        0
1071
        0
1071
        0
1040
1.0
1000

1000

1001
VD_XPROPERTIES
  0
VERTEX
  8
GRID_MINOR
  6
CONTINUOUS
 62
     8
  5
1CE
 10
8.7
 20
0.0
 30
0.0
  0
VERTEX
  8
GRID_MINOR
  6
CONTINUOUS
 62
     8
  5
1CF
 10
8.7
 20
9.0
 30
0.0
  0
SEQEND
  8
0
  5
1D0
  0
POLYLINE
  8
GRID_MINOR
  6
CONTINUOUS
 62
     8
  5
1D1
 66
     1
 10
0.0
 20
0.0
 30
0.0
1001
VDEXTRAPARAM
1071
        0
1071
        0
1071
        0
1040
1.0
1000

1000

1001
VD_XPROPERTIES
  0
VERTEX
  8
GRID_MINOR
  6
CONTINUOUS
 62
     8
  5
1D2
 10
8.8
 20
0.0
 30
0.0
  0
VERTEX
  8
GRID_MINOR
  6
CONTINUOUS
 62
     8
  5
1D3
 10
8.8
 20
9.0
 30
0.0
  0
SEQEND
  8
0
  5
1D4
  0
POLYLINE
  8
GRID_MINOR
  6
CONTINUOUS
 62
     8
  5
1D5
 66
     1
 10
0.0
 20
0.0
 30
0.0
1001
VDEXTRAPARAM
1071
        0
1071
        0
1071
        0
1040
1.0
1000

1000

1001
VD_XPROPERTIES
  0
VERTEX
  8
GRID_MINOR
  6
CONTINUOUS
 62
     8
  5
1D6
 10
8.9
 20
0.0
 30
0.0
  0
VERTEX
  8
GRID_MINOR
  6
CONTINUOUS
 62
     8
  5
1D7
 10
8.9
 20
9.0
 30
0.0
  0
SEQEND
  8
0
  5
1D8
  0
POLYLINE
  8
GRID_MINOR
  6
CONTINUOUS
 62
     8
  5
1D9
 66
     1
 10
0.0
 20
0.0
 30
0.0
1001
VDEXTRAPARAM
1071
        0
1071
        0
1071
        0
1040
1.0
1000

1000

1001
VD_XPROPERTIES
  0
VERTEX
  8
GRID_MINOR
  6
CONTINUOUS
 62
     8
  5
1DA
 10
9.1
 20
0.0
 30
0.0
  0
VERTEX
  8
GRID_MINOR
  6
CONTINUOUS
 62
     8
  5
1DB
 10
9.1
 20
9.0
 30
0.0
  0
SEQEND
  8
0
  5
1DC
  0
POLYLINE
  8
GRID_MINOR
  6
CONTINUOUS
 62
     8
  5
1DD
 66
     1
 10
0.0
 20
0.0
 30
0.0
1001
VDEXTRAPARAM
1071
        0
1071
        0
1071
        0
1040
1.0
1000

1000

1001
VD_XPROPERTIES
  0
VERTEX
  8
GRID_MINOR
  6
CONTINUOUS
 62
     8
  5
1DE
 10
9.2
 20
0.0
 30
0.0
  0
VERTEX
  8
GRID_MINOR
  6
CONTINUOUS
 62
     8
  5
1DF
 10
9.2
 20
9.0
 30
0.0
  0
SEQEND
  8
0
  5
1E0
  0
POLYLINE
  8
GRID_MINOR
  6
CONTINUOUS
 62
     8
  5
1E1
 66
     1
 10
0.0
 20
0.0
 30
0.0
1001
VDEXTRAPARAM
1071
        0
1071
        0
1071
        0
1040
1.0
1000

1000

1001
VD_XPROPERTIES
  0
VERTEX
  8
GRID_MINOR
  6
CONTINUOUS
 62
     8
  5
1E2
 10
9.3
 20
0.0
 30
0.0
  0
VERTEX
  8
GRID_MINOR
  6
CONTINUOUS
 62
     8
  5
1E3
 10
9.3
 20
9.0
 30
0.0
  0
SEQEND
  8
0
  5
1E4
  0
POLYLINE
  8
GRID_MINOR
  6
CONTINUOUS
 62
     8
  5
1E5
 66
     1
 10
0.0
 20
0.0
 30
0.0
1001
VDEXTRAPARAM
1071
        0
1071
        0
1071
        0
1040
1.0
1000

1000

1001
VD_XPROPERTIES
  0
VERTEX
  8
GRID_MINOR
  6
CONTINUOUS
 62
     8
  5
1E6
 10
9.4
 20
0.0
 30
0.0
  0
VERTEX
  8
GRID_MINOR
  6
CONTINUOUS
 62
     8
  5
1E7
 10
9.4
 20
9.0
 30
0.0
  0
SEQEND
  8
0
  5
1E8
  0
POLYLINE
  8
GRID_MINOR
  6
CONTINUOUS
 62
     8
  5
1E9
 66
     1
 10
0.0
 20
0.0
 30
0.0
1001
VDEXTRAPARAM
1071
        0
1071
        0
1071
        0
1040
1.0
1000

1000

1001
VD_XPROPERTIES
  0
VERTEX
  8
GRID_MINOR
  6
CONTINUOUS
 62
     8
  5
1EA
 10
9.5
 20
0.0
 30
0.0
  0
VERTEX
  8
GRID_MINOR
  6
CONTINUOUS
 62
     8
  5
1EB
 10
9.5
 20
9.0
 30
0.0
  0
SEQEND
  8
0
  5
1EC
  0
POLYLINE
  8
GRID_MINOR
  6
CONTINUOUS
 62
     8
  5
1ED
 66
     1
 10
0.0
 20
0.0
 30
0.0
1001
VDEXTRAPARAM
1071
        0
1071
        0
1071
        0
1040
1.0
1000

1000

1001
VD_XPROPERTIES
  0
VERTEX
  8
GRID_MINOR
  6
CONTINUOUS
 62
     8
  5
1EE
 10
9.6
 20
0.0
 30
0.0
  0
VERTEX
  8
GRID_MINOR
  6
CONTINUOUS
 62
     8
  5
1EF
 10
9.6
 20
9.0
 30
0.0
  0
SEQEND
  8
0
  5
1F0
  0
POLYLINE
  8
GRID_MINOR
  6
CONTINUOUS
 62
     8
  5
1F1
 66
     1
 10
0.0
 20
0.0
 30
0.0
1001
VDEXTRAPARAM
1071
        0
1071
        0
1071
        0
1040
1.0
1000

1000

1001
VD_XPROPERTIES
  0
VERTEX
  8
GRID_MINOR
  6
CONTINUOUS
 62
     8
  5
1F2
 10
9.7
 20
0.0
 30
0.0
  0
VERTEX
  8
GRID_MINOR
  6
CONTINUOUS
 62
     8
  5
1F3
 10
9.7
 20
9.0
 30
0.0
  0
SEQEND
  8
0
  5
1F4
  0
POLYLINE
  8
GRID_MINOR
  6
CONTINUOUS
 62
     8
  5
1F5
 66
     1
 10
0.0
 20
0.0
 30
0.0
1001
VDEXTRAPARAM
1071
        0
1071
        0
1071
        0
1040
1.0
1000

1000

1001
VD_XPROPERTIES
  0
VERTEX
  8
GRID_MINOR
  6
CONTINUOUS
 62
     8
  5
1F6
 10
9.8
 20
0.0
 30
0.0
  0
VERTEX
  8
GRID_MINOR
  6
CONTINUOUS
 62
     8
  5
1F7
 10
9.8
 20
9.0
 30
0.0
  0
SEQEND
  8
0
  5
1F8
  0
POLYLINE
  8
GRID_MINOR
  6
CONTINUOUS
 62
     8
  5
1F9
 66
     1
 10
0.0
 20
0.0
 30
0.0
1001
VDEXTRAPARAM
1071
        0
1071
        0
1071
        0
1040
1.0
1000

1000

1001
VD_XPROPERTIES
  0
VERTEX
  8
GRID_MINOR
  6
CONTINUOUS
 62
     8
  5
1FA
 10
9.9
 20
0.0
 30
0.0
  0
VERTEX
  8
GRID_MINOR
  6
CONTINUOUS
 62
     8
  5
1FB
 10
9.9
 20
9.0
 30
0.0
  0
SEQEND
  8
0
  5
1FC
  0
LINE
  8
GRID_MAJOR
  6
CONTINUOUS
  5
1FD
 10
11.0
 20
2.0
 30
0.0
 11
11.0
 21
9.0
 31
0.0
1001
VD_XPROPERTIES
  0
LINE
  8
GRID_MAJOR
  6
CONTINUOUS
  5
1FE
 10
12.0
 20
2.0
 30
0.0
 11
12.0
 21
9.0
 31
0.0
1001
VD_XPROPERTIES
  0
POLYLINE
  8
GRID_MINOR
  6
CONTINUOUS
 62
     8
  5
1FF
 66
     1
 10
0.0
 20
0.0
 30
0.0
1001
VDEXTRAPARAM
1071
        0
1071
        0
1071
        0
1040
1.0
1000

1000

1001
VD_XPROPERTIES
  0
VERTEX
  8
GRID_MINOR
  6
CONTINUOUS
 62
     8
  5
200
 10
10.1
 20
2.0
 30
0.0
  0
VERTEX
  8
GRID_MINOR
  6
CONTINUOUS
 62
     8
  5
201
 10
10.1
 20
9.0
 30
0.0
  0
SEQEND
  8
0
  5
202
  0
POLYLINE
  8
GRID_MINOR
  6
CONTINUOUS
 62
     8
  5
203
 66
     1
 10
0.0
 20
0.0
 30
0.0
1001
VDEXTRAPARAM
1071
        0
1071
        0
1071
        0
1040
1.0
1000

1000

1001
VD_XPROPERTIES
  0
VERTEX
  8
GRID_MINOR
  6
CONTINUOUS
 62
     8
  5
204
 10
10.2
 20
2.0
 30
0.0
  0
VERTEX
  8
GRID_MINOR
  6
CONTINUOUS
 62
     8
  5
205
 10
10.2
 20
9.0
 30
0.0
  0
SEQEND
  8
0
  5
206
  0
POLYLINE
  8
GRID_MINOR
  6
CONTINUOUS
 62
     8
  5
207
 66
     1
 10
0.0
 20
0.0
 30
0.0
1001
VDEXTRAPARAM
1071
        0
1071
        0
1071
        0
1040
1.0
1000

1000

1001
VD_XPROPERTIES
  0
VERTEX
  8
GRID_MINOR
  6
CONTINUOUS
 62
     8
  5
208
 10
10.3
 20
2.0
 30
0.0
  0
VERTEX
  8
GRID_MINOR
  6
CONTINUOUS
 62
     8
  5
209
 10
10.3
 20
9.0
 30
0.0
  0
SEQEND
  8
0
  5
20A
  0
POLYLINE
  8
GRID_MINOR
  6
CONTINUOUS
 62
     8
  5
20B
 66
     1
 10
0.0
 20
0.0
 30
0.0
1001
VDEXTRAPARAM
1071
        0
1071
        0
1071
        0
1040
1.0
1000

1000

1001
VD_XPROPERTIES
  0
VERTEX
  8
GRID_MINOR
  6
CONTINUOUS
 62
     8
  5
20C
 10
10.4
 20
2.0
 30
0.0
  0
VERTEX
  8
GRID_MINOR
  6
CONTINUOUS
 62
     8
  5
20D
 10
10.4
 20
9.0
 30
0.0
  0
SEQEND
  8
0
  5
20E
  0
POLYLINE
  8
GRID_MINOR
  6
CONTINUOUS
 62
     8
  5
20F
 66
     1
 10
0.0
 20
0.0
 30
0.0
1001
VDEXTRAPARAM
1071
        0
1071
        0
1071
        0
1040
1.0
1000

1000

1001
VD_XPROPERTIES
  0
VERTEX
  8
GRID_MINOR
  6
CONTINUOUS
 62
     8
  5
210
 10
10.5
 20
2.0
 30
0.0
  0
VERTEX
  8
GRID_MINOR
  6
CONTINUOUS
 62
     8
  5
211
 10
10.5
 20
9.0
 30
0.0
  0
SEQEND
  8
0
  5
212
  0
POLYLINE
  8
GRID_MINOR
  6
CONTINUOUS
 62
     8
  5
213
 66
     1
 10
0.0
 20
0.0
 30
0.0
1001
VDEXTRAPARAM
1071
        0
1071
        0
1071
        0
1040
1.0
1000

1000

1001
VD_XPROPERTIES
  0
VERTEX
  8
GRID_MINOR
  6
CONTINUOUS
 62
     8
  5
214
 10
10.6
 20
2.0
 30
0.0
  0
VERTEX
  8
GRID_MINOR
  6
CONTINUOUS
 62
     8
  5
215
 10
10.6
 20
9.0
 30
0.0
  0
SEQEND
  8
0
  5
216
  0
POLYLINE
  8
GRID_MINOR
  6
CONTINUOUS
 62
     8
  5
217
 66
     1
 10
0.0
 20
0.0
 30
0.0
1001
VDEXTRAPARAM
1071
        0
1071
        0
1071
        0
1040
1.0
1000

1000

1001
VD_XPROPERTIES
  0
VERTEX
  8
GRID_MINOR
  6
CONTINUOUS
 62
     8
  5
218
 10
10.7
 20
2.0
 30
0.0
  0
VERTEX
  8
GRID_MINOR
  6
CONTINUOUS
 62
     8
  5
219
 10
10.7
 20
9.0
 30
0.0
  0
SEQEND
  8
0
  5
21A
  0
POLYLINE
  8
GRID_MINOR
  6
CONTINUOUS
 62
     8
  5
21B
 66
     1
 10
0.0
 20
0.0
 30
0.0
1001
VDEXTRAPARAM
1071
        0
1071
        0
1071
        0
1040
1.0
1000

1000

1001
VD_XPROPERTIES
  0
VERTEX
  8
GRID_MINOR
  6
CONTINUOUS
 62
     8
  5
21C
 10
10.8
 20
2.0
 30
0.0
  0
VERTEX
  8
GRID_MINOR
  6
CONTINUOUS
 62
     8
  5
21D
 10
10.8
 20
9.0
 30
0.0
  0
SEQEND
  8
0
  5
21E
  0
POLYLINE
  8
GRID_MINOR
  6
CONTINUOUS
 62
     8
  5
21F
 66
     1
 10
0.0
 20
0.0
 30
0.0
1001
VDEXTRAPARAM
1071
        0
1071
        0
1071
        0
1040
1.0
1000

1000

1001
VD_XPROPERTIES
  0
VERTEX
  8
GRID_MINOR
  6
CONTINUOUS
 62
     8
  5
220
 10
10.9
 20
2.0
 30
0.0
  0
VERTEX
  8
GRID_MINOR
  6
CONTINUOUS
 62
     8
  5
221
 10
10.9
 20
9.0
 30
0.0
  0
SEQEND
  8
0
  5
222
  0
POLYLINE
  8
GRID_MINOR
  6
CONTINUOUS
 62
     8
  5
223
 66
     1
 10
0.0
 20
0.0
 30
0.0
1001
VDEXTRAPARAM
1071
        0
1071
        0
1071
        0
1040
1.0
1000

1000

1001
VD_XPROPERTIES
  0
VERTEX
  8
GRID_MINOR
  6
CONTINUOUS
 62
     8
  5
224
 10
11.1
 20
2.0
 30
0.0
  0
VERTEX
  8
GRID_MINOR
  6
CONTINUOUS
 62
     8
  5
225
 10
11.1
 20
9.0
 30
0.0
  0
SEQEND
  8
0
  5
226
  0
POLYLINE
  8
GRID_MINOR
  6
CONTINUOUS
 62
     8
  5
227
 66
     1
 10
0.0
 20
0.0
 30
0.0
1001
VDEXTRAPARAM
1071
        0
1071
        0
1071
        0
1040
1.0
1000

1000

1001
VD_XPROPERTIES
  0
VERTEX
  8
GRID_MINOR
  6
CONTINUOUS
 62
     8
  5
228
 10
11.2
 20
2.0
 30
0.0
  0
VERTEX
  8
GRID_MINOR
  6
CONTINUOUS
 62
     8
  5
229
 10
11.2
 20
9.0
 30
0.0
  0
SEQEND
  8
0
  5
22A
  0
POLYLINE
  8
GRID_MINOR
  6
CONTINUOUS
 62
     8
  5
22B
 66
     1
 10
0.0
 20
0.0
 30
0.0
1001
VDEXTRAPARAM
1071
        0
1071
        0
1071
        0
1040
1.0
1000

1000

1001
VD_XPROPERTIES
  0
VERTEX
  8
GRID_MINOR
  6
CONTINUOUS
 62
     8
  5
22C
 10
11.3
 20
2.0
 30
0.0
  0
VERTEX
  8
GRID_MINOR
  6
CONTINUOUS
 62
     8
  5
22D
 10
11.3
 20
9.0
 30
0.0
  0
SEQEND
  8
0
  5
22E
  0
POLYLINE
  8
GRID_MINOR
  6
CONTINUOUS
 62
     8
  5
22F
 66
     1
 10
0.0
 20
0.0
 30
0.0
1001
VDEXTRAPARAM
1071
        0
1071
        0
1071
        0
1040
1.0
1000

1000

1001
VD_XPROPERTIES
  0
VERTEX
  8
GRID_MINOR
  6
CONTINUOUS
 62
     8
  5
230
 10
11.4
 20
2.0
 30
0.0
  0
VERTEX
  8
GRID_MINOR
  6
CONTINUOUS
 62
     8
  5
231
 10
11.4
 20
9.0
 30
0.0
  0
SEQEND
  8
0
  5
232
  0
POLYLINE
  8
GRID_MINOR
  6
CONTINUOUS
 62
     8
  5
233
 66
     1
 10
0.0
 20
0.0
 30
0.0
1001
VDEXTRAPARAM
1071
        0
1071
        0
1071
        0
1040
1.0
1000

1000

1001
VD_XPROPERTIES
  0
VERTEX
  8
GRID_MINOR
  6
CONTINUOUS
 62
     8
  5
234
 10
11.5
 20
2.0
 30
0.0
  0
VERTEX
  8
GRID_MINOR
  6
CONTINUOUS
 62
     8
  5
235
 10
11.5
 20
9.0
 30
0.0
  0
SEQEND
  8
0
  5
236
  0
POLYLINE
  8
GRID_MINOR
  6
CONTINUOUS
 62
     8
  5
237
 66
     1
 10
0.0
 20
0.0
 30
0.0
1001
VDEXTRAPARAM
1071
        0
1071
        0
1071
        0
1040
1.0
1000

1000

1001
VD_XPROPERTIES
  0
VERTEX
  8
GRID_MINOR
  6
CONTINUOUS
 62
     8
  5
238
 10
11.6
 20
2.0
 30
0.0
  0
VERTEX
  8
GRID_MINOR
  6
CONTINUOUS
 62
     8
  5
239
 10
11.6
 20
9.0
 30
0.0
  0
SEQEND
  8
0
  5
23A
  0
POLYLINE
  8
GRID_MINOR
  6
CONTINUOUS
 62
     8
  5
23B
 66
     1
 10
0.0
 20
0.0
 30
0.0
1001
VDEXTRAPARAM
1071
        0
1071
        0
1071
        0
1040
1.0
1000

1000

1001
VD_XPROPERTIES
  0
VERTEX
  8
GRID_MINOR
  6
CONTINUOUS
 62
     8
  5
23C
 10
11.7
 20
2.0
 30
0.0
  0
VERTEX
  8
GRID_MINOR
  6
CONTINUOUS
 62
     8
  5
23D
 10
11.7
 20
9.0
 30
0.0
  0
SEQEND
  8
0
  5
23E
  0
POLYLINE
  8
GRID_MINOR
  6
CONTINUOUS
 62
     8
  5
23F
 66
     1
 10
0.0
 20
0.0
 30
0.0
1001
VDEXTRAPARAM
1071
        0
1071
        0
1071
        0
1040
1.0
1000

1000

1001
VD_XPROPERTIES
  0
VERTEX
  8
GRID_MINOR
  6
CONTINUOUS
 62
     8
  5
240
 10
11.8
 20
2.0
 30
0.0
  0
VERTEX
  8
GRID_MINOR
  6
CONTINUOUS
 62
     8
  5
241
 10
11.8
 20
9.0
 30
0.0
  0
SEQEND
  8
0
  5
242
  0
POLYLINE
  8
GRID_MINOR
  6
CONTINUOUS
 62
     8
  5
243
 66
     1
 10
0.0
 20
0.0
 30
0.0
1001
VDEXTRAPARAM
1071
        0
1071
        0
1071
        0
1040
1.0
1000

1000

1001
VD_XPROPERTIES
  0
VERTEX
  8
GRID_MINOR
  6
CONTINUOUS
 62
     8
  5
244
 10
11.9
 20
2.0
 30
0.0
  0
VERTEX
  8
GRID_MINOR
  6
CONTINUOUS
 62
     8
  5
245
 10
11.9
 20
9.0
 30
0.0
  0
SEQEND
  8
0
  5
246
  0
POLYLINE
  8
GRID_MINOR
  6
CONTINUOUS
 62
     8
  5
247
 66
     1
 10
0.0
 20
0.0
 30
0.0
1001
VDEXTRAPARAM
1071
        0
1071
        0
1071
        0
1040
1.0
1000

1000

1001
VD_XPROPERTIES
  0
VERTEX
  8
GRID_MINOR
  6
CONTINUOUS
 62
     8
  5
248
 10
12.1
 20
2.0
 30
0.0
  0
VERTEX
  8
GRID_MINOR
  6
CONTINUOUS
 62
     8
  5
249
 10
12.1
 20
9.0
 30
0.0
  0
SEQEND
  8
0
  5
24A
  0
POLYLINE
  8
GRID_MINOR
  6
CONTINUOUS
 62
     8
  5
24B
 66
     1
 10
0.0
 20
0.0
 30
0.0
1001
VDEXTRAPARAM
1071
        0
1071
        0
1071
        0
1040
1.0
1000

1000

1001
VD_XPROPERTIES
  0
VERTEX
  8
GRID_MINOR
  6
CONTINUOUS
 62
     8
  5
24C
 10
12.2
 20
2.0
 30
0.0
  0
VERTEX
  8
GRID_MINOR
  6
CONTINUOUS
 62
     8
  5
24D
 10
12.2
 20
9.0
 30
0.0
  0
SEQEND
  8
0
  5
24E
  0
POLYLINE
  8
GRID_MINOR
  6
CONTINUOUS
 62
     8
  5
24F
 66
     1
 10
0.0
 20
0.0
 30
0.0
1001
VDEXTRAPARAM
1071
        0
1071
        0
1071
        0
1040
1.0
1000

1000

1001
VD_XPROPERTIES
  0
VERTEX
  8
GRID_MINOR
  6
CONTINUOUS
 62
     8
  5
250
 10
12.3
 20
2.0
 30
0.0
  0
VERTEX
  8
GRID_MINOR
  6
CONTINUOUS
 62
     8
  5
251
 10
12.3
 20
9.0
 30
0.0
  0
SEQEND
  8
0
  5
252
  0
POLYLINE
  8
GRID_MINOR
  6
CONTINUOUS
 62
     8
  5
253
 66
     1
 10
0.0
 20
0.0
 30
0.0
1001
VDEXTRAPARAM
1071
        0
1071
        0
1071
        0
1040
1.0
1000

1000

1001
VD_XPROPERTIES
  0
VERTEX
  8
GRID_MINOR
  6
CONTINUOUS
 62
     8
  5
254
 10
12.4
 20
2.0
 30
0.0
  0
VERTEX
  8
GRID_MINOR
  6
CONTINUOUS
 62
     8
  5
255
 10
12.4
 20
9.0
 30
0.0
  0
SEQEND
  8
0
  5
256
  0
POLYLINE
  8
GRID_MINOR
  6
CONTINUOUS
 62
     8
  5
257
 66
     1
 10
0.0
 20
0.0
 30
0.0
1001
VDEXTRAPARAM
1071
        0
1071
        0
1071
        0
1040
1.0
1000

1000

1001
VD_XPROPERTIES
  0
VERTEX
  8
GRID_MINOR
  6
CONTINUOUS
 62
     8
  5
258
 10
12.5
 20
2.0
 30
0.0
  0
VERTEX
  8
GRID_MINOR
  6
CONTINUOUS
 62
     8
  5
259
 10
12.5
 20
9.0
 30
0.0
  0
SEQEND
  8
0
  5
25A
  0
POLYLINE
  8
GRID_MINOR
  6
CONTINUOUS
 62
     8
  5
25B
 66
     1
 10
0.0
 20
0.0
 30
0.0
1001
VDEXTRAPARAM
1071
        0
1071
        0
1071
        0
1040
1.0
1000

1000

1001
VD_XPROPERTIES
  0
VERTEX
  8
GRID_MINOR
  6
CONTINUOUS
 62
     8
  5
25C
 10
12.6
 20
2.0
 30
0.0
  0
VERTEX
  8
GRID_MINOR
  6
CONTINUOUS
 62
     8
  5
25D
 10
12.6
 20
9.0
 30
0.0
  0
SEQEND
  8
0
  5
25E
  0
POLYLINE
  8
GRID_MINOR
  6
CONTINUOUS
 62
     8
  5
25F
 66
     1
 10
0.0
 20
0.0
 30
0.0
1001
VDEXTRAPARAM
1071
        0
1071
        0
1071
        0
1040
1.0
1000

1000

1001
VD_XPROPERTIES
  0
VERTEX
  8
GRID_MINOR
  6
CONTINUOUS
 62
     8
  5
260
 10
12.7
 20
2.0
 30
0.0
  0
VERTEX
  8
GRID_MINOR
  6
CONTINUOUS
 62
     8
  5
261
 10
12.7
 20
9.0
 30
0.0
  0
SEQEND
  8
0
  5
262
  0
POLYLINE
  8
GRID_MINOR
  6
CONTINUOUS
 62
     8
  5
263
 66
     1
 10
0.0
 20
0.0
 30
0.0
1001
VDEXTRAPARAM
1071
        0
1071
        0
1071
        0
1040
1.0
1000

1000

1001
VD_XPROPERTIES
  0
VERTEX
  8
GRID_MINOR
  6
CONTINUOUS
 62
     8
  5
264
 10
12.8
 20
2.0
 30
0.0
  0
VERTEX
  8
GRID_MINOR
  6
CONTINUOUS
 62
     8
  5
265
 10
12.8
 20
9.0
 30
0.0
  0
SEQEND
  8
0
  5
266
  0
POLYLINE
  8
GRID_MINOR
  6
CONTINUOUS
 62
     8
  5
267
 66
     1
 10
0.0
 20
0.0
 30
0.0
1001
VDEXTRAPARAM
1071
        0
1071
        0
1071
        0
1040
1.0
1000

1000

1001
VD_XPROPERTIES
  0
VERTEX
  8
GRID_MINOR
  6
CONTINUOUS
 62
     8
  5
268
 10
12.9
 20
2.0
 30
0.0
  0
VERTEX
  8
GRID_MINOR
  6
CONTINUOUS
 62
     8
  5
269
 10
12.9
 20
9.0
 30
0.0
  0
SEQEND
  8
0
  5
26A
  0
POLYLINE
  8
GRID_MINOR
  6
CONTINUOUS
 62
     8
  5
26B
 66
     1
 10
0.0
 20
0.0
 30
0.0
1001
VDEXTRAPARAM
1071
        0
1071
        0
1071
        0
1040
1.0
1000

1000

1001
VD_XPROPERTIES
  0
VERTEX
  8
GRID_MINOR
  6
CONTINUOUS
 62
     8
  5
26C
 10
7.6
 20
0.0
 30
0.0
  0
VERTEX
  8
GRID_MINOR
  6
CONTINUOUS
 62
     8
  5
26D
 10
7.6
 20
9.0
 30
0.0
  0
SEQEND
  8
0
  5
26E
  0
POLYLINE
  8
GRID_MINOR
  6
CONTINUOUS
 62
     8
  5
26F
 66
     1
 10
0.0
 20
0.0
 30
0.0
1001
VDEXTRAPARAM
1071
        0
1071
        0
1071
        0
1040
1.0
1000

1000

1001
VD_XPROPERTIES
  0
VERTEX
  8
GRID_MINOR
  6
CONTINUOUS
 62
     8
  5
270
 10
7.7
 20
0.0
 30
0.0
  0
VERTEX
  8
GRID_MINOR
  6
CONTINUOUS
 62
     8
  5
271
 10
7.7
 20
9.0
 30
0.0
  0
SEQEND
  8
0
  5
272
  0
POLYLINE
  8
BORDERLINE
  5
273
 66
     1
 10
0.0
 20
0.0
 30
0.0
1001
VDEXTRAPARAM
1071
        0
1071
        0
1071
        0
1040
1.0
1000

1000

1001
VD_XPROPERTIES
  0
VERTEX
  8
BORDERLINE
  5
274
 10
13.5
 20
-0.35
 30
0.0
  0
VERTEX
  8
BORDERLINE
  5
275
 10
14.5
 20
-0.35
 30
0.0
  0
SEQEND
  8
0
  5
276
  0
POLYLINE
  8
GRID_MAJOR
  5
277
 66
     1
 10
0.0
 20
0.0
 30
0.0
1001
VDEXTRAPARAM
1071
        0
1071
        0
1071
        0
1040
1.0
1000

1000

1001
VD_XPROPERTIES
  0
VERTEX
  8
GRID_MAJOR
  5
278
 10
0.0
 20
0.0
 30
0.0
  0
VERTEX
  8
GRID_MAJOR
  5
279
 10
13.0
 20
0.0
 30
0.0
  0
SEQEND
  8
0
  5
27A
  0
LINE
  8
GRID_MAJOR
  5
27B
 10
0.0
 20
1.0
 30
0.0
 11
10.0
 21
1.0
 31
0.0
1001
VD_XPROPERTIES
  0
POLYLINE
  8
GRID_MINOR
  6
CONTINUOUS
 62
     8
  5
27C
 66
     1
 10
0.0
 20
0.0
 30
0.0
1001
VDEXTRAPARAM
1071
        0
1071
        0
1071
        0
1040
1.0
1000

1000

1001
VD_XPROPERTIES
  0
VERTEX
  8
GRID_MINOR
  6
CONTINUOUS
 62
     8
  5
27D
 10
0.0
 20
0.1
 30
0.0
  0
VERTEX
  8
GRID_MINOR
  6
CONTINUOUS
 62
     8
  5
27E
 10
10.0
 20
0.1
 30
0.0
  0
SEQEND
  8
0
  5
27F
  0
POLYLINE
  8
GRID_MINOR
  6
CONTINUOUS
 62
     8
  5
280
 66
     1
 10
0.0
 20
0.0
 30
0.0
1001
VDEXTRAPARAM
1071
        0
1071
        0
1071
        0
1040
1.0
1000

1000

1001
VD_XPROPERTIES
  0
VERTEX
  8
GRID_MINOR
  6
CONTINUOUS
 62
     8
  5
281
 10
0.0
 20
0.2
 30
0.0
  0
VERTEX
  8
GRID_MINOR
  6
CONTINUOUS
 62
     8
  5
282
 10
10.0
 20
0.2
 30
0.0
  0
SEQEND
  8
0
  5
283
  0
POLYLINE
  8
GRID_MINOR
  6
CONTINUOUS
 62
     8
  5
284
 66
     1
 10
0.0
 20
0.0
 30
0.0
1001
VDEXTRAPARAM
1071
        0
1071
        0
1071
        0
1040
1.0
1000

1000

1001
VD_XPROPERTIES
  0
VERTEX
  8
GRID_MINOR
  6
CONTINUOUS
 62
     8
  5
285
 10
0.0
 20
0.3
 30
0.0
  0
VERTEX
  8
GRID_MINOR
  6
CONTINUOUS
 62
     8
  5
286
 10
10.0
 20
0.3
 30
0.0
  0
SEQEND
  8
0
  5
287
  0
POLYLINE
  8
GRID_MINOR
  6
CONTINUOUS
 62
     8
  5
288
 66
     1
 10
0.0
 20
0.0
 30
0.0
1001
VDEXTRAPARAM
1071
        0
1071
        0
1071
        0
1040
1.0
1000

1000

1001
VD_XPROPERTIES
  0
VERTEX
  8
GRID_MINOR
  6
CONTINUOUS
 62
     8
  5
289
 10
0.0
 20
0.4
 30
0.0
  0
VERTEX
  8
GRID_MINOR
  6
CONTINUOUS
 62
     8
  5
28A
 10
10.0
 20
0.4
 30
0.0
  0
SEQEND
  8
0
  5
28B
  0
POLYLINE
  8
GRID_MINOR
  6
CONTINUOUS
 62
     8
  5
28C
 66
     1
 10
0.0
 20
0.0
 30
0.0
1001
VDEXTRAPARAM
1071
        0
1071
        0
1071
        0
1040
1.0
1000

1000

1001
VD_XPROPERTIES
  0
VERTEX
  8
GRID_MINOR
  6
CONTINUOUS
 62
     8
  5
28D
 10
0.0
 20
0.5
 30
0.0
  0
VERTEX
  8
GRID_MINOR
  6
CONTINUOUS
 62
     8
  5
28E
 10
10.0
 20
0.5
 30
0.0
  0
SEQEND
  8
0
  5
28F
  0
POLYLINE
  8
GRID_MINOR
  6
CONTINUOUS
 62
     8
  5
290
 66
     1
 10
0.0
 20
0.0
 30
0.0
1001
VDEXTRAPARAM
1071
        0
1071
        0
1071
        0
1040
1.0
1000

1000

1001
VD_XPROPERTIES
  0
VERTEX
  8
GRID_MINOR
  6
CONTINUOUS
 62
     8
  5
291
 10
0.0
 20
0.6
 30
0.0
  0
VERTEX
  8
GRID_MINOR
  6
CONTINUOUS
 62
     8
  5
292
 10
10.0
 20
0.6
 30
0.0
  0
SEQEND
  8
0
  5
293
  0
POLYLINE
  8
GRID_MINOR
  6
CONTINUOUS
 62
     8
  5
294
 66
     1
 10
0.0
 20
0.0
 30
0.0
1001
VDEXTRAPARAM
1071
        0
1071
        0
1071
        0
1040
1.0
1000

1000

1001
VD_XPROPERTIES
  0
VERTEX
  8
GRID_MINOR
  6
CONTINUOUS
 62
     8
  5
295
 10
0.0
 20
0.7
 30
0.0
  0
VERTEX
  8
GRID_MINOR
  6
CONTINUOUS
 62
     8
  5
296
 10
10.0
 20
0.7
 30
0.0
  0
SEQEND
  8
0
  5
297
  0
POLYLINE
  8
GRID_MINOR
  6
CONTINUOUS
 62
     8
  5
298
 66
     1
 10
0.0
 20
0.0
 30
0.0
1001
VDEXTRAPARAM
1071
        0
1071
        0
1071
        0
1040
1.0
1000

1000

1001
VD_XPROPERTIES
  0
VERTEX
  8
GRID_MINOR
  6
CONTINUOUS
 62
     8
  5
299
 10
0.0
 20
0.8
 30
0.0
  0
VERTEX
  8
GRID_MINOR
  6
CONTINUOUS
 62
     8
  5
29A
 10
10.0
 20
0.8
 30
0.0
  0
SEQEND
  8
0
  5
29B
  0
POLYLINE
  8
GRID_MINOR
  6
CONTINUOUS
 62
     8
  5
29C
 66
     1
 10
0.0
 20
0.0
 30
0.0
1001
VDEXTRAPARAM
1071
        0
1071
        0
1071
        0
1040
1.0
1000

1000

1001
VD_XPROPERTIES
  0
VERTEX
  8
GRID_MINOR
  6
CONTINUOUS
 62
     8
  5
29D
 10
0.0
 20
0.9
 30
0.0
  0
VERTEX
  8
GRID_MINOR
  6
CONTINUOUS
 62
     8
  5
29E
 10
10.0
 20
0.9
 30
0.0
  0
SEQEND
  8
0
  5
29F
  0
POLYLINE
  8
GRID_MINOR
  6
CONTINUOUS
 62
     8
  5
2A0
 66
     1
 10
0.0
 20
0.0
 30
0.0
1001
VDEXTRAPARAM
1071
        0
1071
        0
1071
        0
1040
1.0
1000

1000

1001
VD_XPROPERTIES
  0
VERTEX
  8
GRID_MINOR
  6
CONTINUOUS
 62
     8
  5
2A1
 10
0.0
 20
1.1
 30
0.0
  0
VERTEX
  8
GRID_MINOR
  6
CONTINUOUS
 62
     8
  5
2A2
 10
10.0
 20
1.1
 30
0.0
  0
SEQEND
  8
0
  5
2A3
  0
POLYLINE
  8
BORDERLINE
  5
2A4
 66
     1
 10
0.0
 20
0.0
 30
0.0
1001
VDEXTRAPARAM
1071
        0
1071
        0
1071
        0
1040
1.0
1000

1000

1001
VD_XPROPERTIES
  0
VERTEX
  8
BORDERLINE
  5
2A5
 10
13.5
 20
3.4
 30
0.0
  0
VERTEX
  8
BORDERLINE
  5
2A6
 10
14.5
 20
3.4
 30
0.0
  0
SEQEND
  8
0
  5
2A7
  0
POLYLINE
  8
GRID_MAJOR
  5
2A8
 66
     1
 10
0.0
 20
0.0
 30
0.0
1001
VDEXTRAPARAM
1071
        0
1071
        0
1071
        0
1040
1.0
1000

1000

1001
VD_XPROPERTIES
  0
VERTEX
  8
GRID_MAJOR
  5
2A9
 10
0.0
 20
2.0
 30
0.0
  0
VERTEX
  8
GRID_MAJOR
  5
2AA
 10
13.0
 20
2.0
 30
0.0
  0
SEQEND
  8
0
  5
2AB
  0
POLYLINE
  8
GRID_MAJOR
  5
2AC
 66
     1
 10
0.0
 20
0.0
 30
0.0
1001
VDEXTRAPARAM
1071
        0
1071
        0
1071
        0
1040
1.0
1000

1000

1001
VD_XPROPERTIES
  0
VERTEX
  8
GRID_MAJOR
  5
2AD
 10
0.0
 20
3.0
 30
0.0
  0
VERTEX
  8
GRID_MAJOR
  5
2AE
 10
13.0
 20
3.0
 30
0.0
  0
SEQEND
  8
0
  5
2AF
  0
POLYLINE
  8
GRID_MAJOR
  5
2B0
 66
     1
 10
0.0
 20
0.0
 30
0.0
1001
VDEXTRAPARAM
1071
        0
1071
        0
1071
        0
1040
1.0
1000

1000

1001
VD_XPROPERTIES
  0
VERTEX
  8
GRID_MAJOR
  5
2B1
 10
0.0
 20
4.0
 30
0.0
  0
VERTEX
  8
GRID_MAJOR
  5
2B2
 10
13.0
 20
4.0
 30
0.0
  0
SEQEND
  8
0
  5
2B3
  0
POLYLINE
  8
GRID_MINOR
  6
CONTINUOUS
 62
     8
  5
2B4
 66
     1
 10
0.0
 20
0.0
 30
0.0
1001
VDEXTRAPARAM
1071
        0
1071
        0
1071
        0
1040
1.0
1000

1000

1001
VD_XPROPERTIES
  0
VERTEX
  8
GRID_MINOR
  6
CONTINUOUS
 62
     8
  5
2B5
 10
0.0
 20
1.2
 30
0.0
  0
VERTEX
  8
GRID_MINOR
  6
CONTINUOUS
 62
     8
  5
2B6
 10
10.0
 20
1.2
 30
0.0
  0
SEQEND
  8
0
  5
2B7
  0
POLYLINE
  8
GRID_MINOR
  6
CONTINUOUS
 62
     8
  5
2B8
 66
     1
 10
0.0
 20
0.0
 30
0.0
1001
VDEXTRAPARAM
1071
        0
1071
        0
1071
        0
1040
1.0
1000

1000

1001
VD_XPROPERTIES
  0
VERTEX
  8
GRID_MINOR
  6
CONTINUOUS
 62
     8
  5
2B9
 10
0.0
 20
1.3
 30
0.0
  0
VERTEX
  8
GRID_MINOR
  6
CONTINUOUS
 62
     8
  5
2BA
 10
10.0
 20
1.3
 30
0.0
  0
SEQEND
  8
0
  5
2BB
  0
POLYLINE
  8
GRID_MINOR
  6
CONTINUOUS
 62
     8
  5
2BC
 66
     1
 10
0.0
 20
0.0
 30
0.0
1001
VDEXTRAPARAM
1071
        0
1071
        0
1071
        0
1040
1.0
1000

1000

1001
VD_XPROPERTIES
  0
VERTEX
  8
GRID_MINOR
  6
CONTINUOUS
 62
     8
  5
2BD
 10
0.0
 20
1.4
 30
0.0
  0
VERTEX
  8
GRID_MINOR
  6
CONTINUOUS
 62
     8
  5
2BE
 10
10.0
 20
1.4
 30
0.0
  0
SEQEND
  8
0
  5
2BF
  0
POLYLINE
  8
GRID_MINOR
  6
CONTINUOUS
 62
     8
  5
2C0
 66
     1
 10
0.0
 20
0.0
 30
0.0
1001
VDEXTRAPARAM
1071
        0
1071
        0
1071
        0
1040
1.0
1000

1000

1001
VD_XPROPERTIES
  0
VERTEX
  8
GRID_MINOR
  6
CONTINUOUS
 62
     8
  5
2C1
 10
0.0
 20
1.5
 30
0.0
  0
VERTEX
  8
GRID_MINOR
  6
CONTINUOUS
 62
     8
  5
2C2
 10
10.0
 20
1.5
 30
0.0
  0
SEQEND
  8
0
  5
2C3
  0
POLYLINE
  8
GRID_MINOR
  6
CONTINUOUS
 62
     8
  5
2C4
 66
     1
 10
0.0
 20
0.0
 30
0.0
1001
VDEXTRAPARAM
1071
        0
1071
        0
1071
        0
1040
1.0
1000

1000

1001
VD_XPROPERTIES
  0
VERTEX
  8
GRID_MINOR
  6
CONTINUOUS
 62
     8
  5
2C5
 10
0.0
 20
1.6
 30
0.0
  0
VERTEX
  8
GRID_MINOR
  6
CONTINUOUS
 62
     8
  5
2C6
 10
10.0
 20
1.6
 30
0.0
  0
SEQEND
  8
0
  5
2C7
  0
POLYLINE
  8
GRID_MINOR
  6
CONTINUOUS
 62
     8
  5
2C8
 66
     1
 10
0.0
 20
0.0
 30
0.0
1001
VDEXTRAPARAM
1071
        0
1071
        0
1071
        0
1040
1.0
1000

1000

1001
VD_XPROPERTIES
  0
VERTEX
  8
GRID_MINOR
  6
CONTINUOUS
 62
     8
  5
2C9
 10
0.0
 20
1.7
 30
0.0
  0
VERTEX
  8
GRID_MINOR
  6
CONTINUOUS
 62
     8
  5
2CA
 10
10.0
 20
1.7
 30
0.0
  0
SEQEND
  8
0
  5
2CB
  0
POLYLINE
  8
GRID_MINOR
  6
CONTINUOUS
 62
     8
  5
2CC
 66
     1
 10
0.0
 20
0.0
 30
0.0
1001
VDEXTRAPARAM
1071
        0
1071
        0
1071
        0
1040
1.0
1000

1000

1001
VD_XPROPERTIES
  0
VERTEX
  8
GRID_MINOR
  6
CONTINUOUS
 62
     8
  5
2CD
 10
0.0
 20
1.8
 30
0.0
  0
VERTEX
  8
GRID_MINOR
  6
CONTINUOUS
 62
     8
  5
2CE
 10
10.0
 20
1.8
 30
0.0
  0
SEQEND
  8
0
  5
2CF
  0
POLYLINE
  8
GRID_MINOR
  6
CONTINUOUS
 62
     8
  5
2D0
 66
     1
 10
0.0
 20
0.0
 30
0.0
1001
VDEXTRAPARAM
1071
        0
1071
        0
1071
        0
1040
1.0
1000

1000

1001
VD_XPROPERTIES
  0
VERTEX
  8
GRID_MINOR
  6
CONTINUOUS
 62
     8
  5
2D1
 10
0.0
 20
1.9
 30
0.0
  0
VERTEX
  8
GRID_MINOR
  6
CONTINUOUS
 62
     8
  5
2D2
 10
10.0
 20
1.9
 30
0.0
  0
SEQEND
  8
0
  5
2D3
  0
POLYLINE
  8
GRID_MINOR
  6
CONTINUOUS
 62
     8
  5
2D4
 66
     1
 10
0.0
 20
0.0
 30
0.0
1001
VDEXTRAPARAM
1071
        0
1071
        0
1071
        0
1040
1.0
1000

1000

1001
VD_XPROPERTIES
  0
VERTEX
  8
GRID_MINOR
  6
CONTINUOUS
 62
     8
  5
2D5
 10
0.0
 20
2.1
 30
0.0
  0
VERTEX
  8
GRID_MINOR
  6
CONTINUOUS
 62
     8
  5
2D6
 10
13.0
 20
2.1
 30
0.0
  0
SEQEND
  8
0
  5
2D7
  0
POLYLINE
  8
GRID_MINOR
  6
CONTINUOUS
 62
     8
  5
2D8
 66
     1
 10
0.0
 20
0.0
 30
0.0
1001
VDEXTRAPARAM
1071
        0
1071
        0
1071
        0
1040
1.0
1000

1000

1001
VD_XPROPERTIES
  0
VERTEX
  8
GRID_MINOR
  6
CONTINUOUS
 62
     8
  5
2D9
 10
0.0
 20
2.2
 30
0.0
  0
VERTEX
  8
GRID_MINOR
  6
CONTINUOUS
 62
     8
  5
2DA
 10
13.0
 20
2.2
 30
0.0
  0
SEQEND
  8
0
  5
2DB
  0
POLYLINE
  8
GRID_MINOR
  6
CONTINUOUS
 62
     8
  5
2DC
 66
     1
 10
0.0
 20
0.0
 30
0.0
1001
VDEXTRAPARAM
1071
        0
1071
        0
1071
        0
1040
1.0
1000

1000

1001
VD_XPROPERTIES
  0
VERTEX
  8
GRID_MINOR
  6
CONTINUOUS
 62
     8
  5
2DD
 10
0.0
 20
2.3
 30
0.0
  0
VERTEX
  8
GRID_MINOR
  6
CONTINUOUS
 62
     8
  5
2DE
 10
13.0
 20
2.3
 30
0.0
  0
SEQEND
  8
0
  5
2DF
  0
POLYLINE
  8
GRID_MINOR
  6
CONTINUOUS
 62
     8
  5
2E0
 66
     1
 10
0.0
 20
0.0
 30
0.0
1001
VDEXTRAPARAM
1071
        0
1071
        0
1071
        0
1040
1.0
1000

1000

1001
VD_XPROPERTIES
  0
VERTEX
  8
GRID_MINOR
  6
CONTINUOUS
 62
     8
  5
2E1
 10
0.0
 20
2.4
 30
0.0
  0
VERTEX
  8
GRID_MINOR
  6
CONTINUOUS
 62
     8
  5
2E2
 10
13.0
 20
2.4
 30
0.0
  0
SEQEND
  8
0
  5
2E3
  0
POLYLINE
  8
GRID_MINOR
  6
CONTINUOUS
 62
     8
  5
2E4
 66
     1
 10
0.0
 20
0.0
 30
0.0
1001
VDEXTRAPARAM
1071
        0
1071
        0
1071
        0
1040
1.0
1000

1000

1001
VD_XPROPERTIES
  0
VERTEX
  8
GRID_MINOR
  6
CONTINUOUS
 62
     8
  5
2E5
 10
0.0
 20
2.5
 30
0.0
  0
VERTEX
  8
GRID_MINOR
  6
CONTINUOUS
 62
     8
  5
2E6
 10
13.0
 20
2.5
 30
0.0
  0
SEQEND
  8
0
  5
2E7
  0
POLYLINE
  8
GRID_MINOR
  6
CONTINUOUS
 62
     8
  5
2E8
 66
     1
 10
0.0
 20
0.0
 30
0.0
1001
VDEXTRAPARAM
1071
        0
1071
        0
1071
        0
1040
1.0
1000

1000

1001
VD_XPROPERTIES
  0
VERTEX
  8
GRID_MINOR
  6
CONTINUOUS
 62
     8
  5
2E9
 10
0.0
 20
2.6
 30
0.0
  0
VERTEX
  8
GRID_MINOR
  6
CONTINUOUS
 62
     8
  5
2EA
 10
13.0
 20
2.6
 30
0.0
  0
SEQEND
  8
0
  5
2EB
  0
POLYLINE
  8
GRID_MINOR
  6
CONTINUOUS
 62
     8
  5
2EC
 66
     1
 10
0.0
 20
0.0
 30
0.0
1001
VDEXTRAPARAM
1071
        0
1071
        0
1071
        0
1040
1.0
1000

1000

1001
VD_XPROPERTIES
  0
VERTEX
  8
GRID_MINOR
  6
CONTINUOUS
 62
     8
  5
2ED
 10
0.0
 20
2.7
 30
0.0
  0
VERTEX
  8
GRID_MINOR
  6
CONTINUOUS
 62
     8
  5
2EE
 10
13.0
 20
2.7
 30
0.0
  0
SEQEND
  8
0
  5
2EF
  0
POLYLINE
  8
GRID_MINOR
  6
CONTINUOUS
 62
     8
  5
2F0
 66
     1
 10
0.0
 20
0.0
 30
0.0
1001
VDEXTRAPARAM
1071
        0
1071
        0
1071
        0
1040
1.0
1000

1000

1001
VD_XPROPERTIES
  0
VERTEX
  8
GRID_MINOR
  6
CONTINUOUS
 62
     8
  5
2F1
 10
0.0
 20
2.8
 30
0.0
  0
VERTEX
  8
GRID_MINOR
  6
CONTINUOUS
 62
     8
  5
2F2
 10
13.0
 20
2.8
 30
0.0
  0
SEQEND
  8
0
  5
2F3
  0
POLYLINE
  8
GRID_MINOR
  6
CONTINUOUS
 62
     8
  5
2F4
 66
     1
 10
0.0
 20
0.0
 30
0.0
1001
VDEXTRAPARAM
1071
        0
1071
        0
1071
        0
1040
1.0
1000

1000

1001
VD_XPROPERTIES
  0
VERTEX
  8
GRID_MINOR
  6
CONTINUOUS
 62
     8
  5
2F5
 10
0.0
 20
2.9
 30
0.0
  0
VERTEX
  8
GRID_MINOR
  6
CONTINUOUS
 62
     8
  5
2F6
 10
13.0
 20
2.9
 30
0.0
  0
SEQEND
  8
0
  5
2F7
  0
POLYLINE
  8
GRID_MINOR
  6
CONTINUOUS
 62
     8
  5
2F8
 66
     1
 10
0.0
 20
0.0
 30
0.0
1001
VDEXTRAPARAM
1071
        0
1071
        0
1071
        0
1040
1.0
1000

1000

1001
VD_XPROPERTIES
  0
VERTEX
  8
GRID_MINOR
  6
CONTINUOUS
 62
     8
  5
2F9
 10
0.0
 20
3.1
 30
0.0
  0
VERTEX
  8
GRID_MINOR
  6
CONTINUOUS
 62
     8
  5
2FA
 10
13.0
 20
3.1
 30
0.0
  0
SEQEND
  8
0
  5
2FB
  0
POLYLINE
  8
GRID_MINOR
  6
CONTINUOUS
 62
     8
  5
2FC
 66
     1
 10
0.0
 20
0.0
 30
0.0
1001
VDEXTRAPARAM
1071
        0
1071
        0
1071
        0
1040
1.0
1000

1000

1001
VD_XPROPERTIES
  0
VERTEX
  8
GRID_MINOR
  6
CONTINUOUS
 62
     8
  5
2FD
 10
0.0
 20
3.2
 30
0.0
  0
VERTEX
  8
GRID_MINOR
  6
CONTINUOUS
 62
     8
  5
2FE
 10
13.0
 20
3.2
 30
0.0
  0
SEQEND
  8
0
  5
2FF
  0
POLYLINE
  8
GRID_MINOR
  6
CONTINUOUS
 62
     8
  5
300
 66
     1
 10
0.0
 20
0.0
 30
0.0
1001
VDEXTRAPARAM
1071
        0
1071
        0
1071
        0
1040
1.0
1000

1000

1001
VD_XPROPERTIES
  0
VERTEX
  8
GRID_MINOR
  6
CONTINUOUS
 62
     8
  5
301
 10
0.0
 20
3.3
 30
0.0
  0
VERTEX
  8
GRID_MINOR
  6
CONTINUOUS
 62
     8
  5
302
 10
13.0
 20
3.3
 30
0.0
  0
SEQEND
  8
0
  5
303
  0
POLYLINE
  8
GRID_MINOR
  6
CONTINUOUS
 62
     8
  5
304
 66
     1
 10
0.0
 20
0.0
 30
0.0
1001
VDEXTRAPARAM
1071
        0
1071
        0
1071
        0
1040
1.0
1000

1000

1001
VD_XPROPERTIES
  0
VERTEX
  8
GRID_MINOR
  6
CONTINUOUS
 62
     8
  5
305
 10
0.0
 20
3.4
 30
0.0
  0
VERTEX
  8
GRID_MINOR
  6
CONTINUOUS
 62
     8
  5
306
 10
13.0
 20
3.4
 30
0.0
  0
SEQEND
  8
0
  5
307
  0
POLYLINE
  8
GRID_MINOR
  6
CONTINUOUS
 62
     8
  5
308
 66
     1
 10
0.0
 20
0.0
 30
0.0
1001
VDEXTRAPARAM
1071
        0
1071
        0
1071
        0
1040
1.0
1000

1000

1001
VD_XPROPERTIES
  0
VERTEX
  8
GRID_MINOR
  6
CONTINUOUS
 62
     8
  5
309
 10
0.0
 20
3.5
 30
0.0
  0
VERTEX
  8
GRID_MINOR
  6
CONTINUOUS
 62
     8
  5
30A
 10
13.0
 20
3.5
 30
0.0
  0
SEQEND
  8
0
  5
30B
  0
POLYLINE
  8
GRID_MINOR
  6
CONTINUOUS
 62
     8
  5
30C
 66
     1
 10
0.0
 20
0.0
 30
0.0
1001
VDEXTRAPARAM
1071
        0
1071
        0
1071
        0
1040
1.0
1000

1000

1001
VD_XPROPERTIES
  0
VERTEX
  8
GRID_MINOR
  6
CONTINUOUS
 62
     8
  5
30D
 10
0.0
 20
3.6
 30
0.0
  0
VERTEX
  8
GRID_MINOR
  6
CONTINUOUS
 62
     8
  5
30E
 10
13.0
 20
3.6
 30
0.0
  0
SEQEND
  8
0
  5
30F
  0
POLYLINE
  8
GRID_MINOR
  6
CONTINUOUS
 62
     8
  5
310
 66
     1
 10
0.0
 20
0.0
 30
0.0
1001
VDEXTRAPARAM
1071
        0
1071
        0
1071
        0
1040
1.0
1000

1000

1001
VD_XPROPERTIES
  0
VERTEX
  8
GRID_MINOR
  6
CONTINUOUS
 62
     8
  5
311
 10
0.0
 20
3.7
 30
0.0
  0
VERTEX
  8
GRID_MINOR
  6
CONTINUOUS
 62
     8
  5
312
 10
13.0
 20
3.7
 30
0.0
  0
SEQEND
  8
0
  5
313
  0
POLYLINE
  8
GRID_MINOR
  6
CONTINUOUS
 62
     8
  5
314
 66
     1
 10
0.0
 20
0.0
 30
0.0
1001
VDEXTRAPARAM
1071
        0
1071
        0
1071
        0
1040
1.0
1000

1000

1001
VD_XPROPERTIES
  0
VERTEX
  8
GRID_MINOR
  6
CONTINUOUS
 62
     8
  5
315
 10
0.0
 20
3.8
 30
0.0
  0
VERTEX
  8
GRID_MINOR
  6
CONTINUOUS
 62
     8
  5
316
 10
13.0
 20
3.8
 30
0.0
  0
SEQEND
  8
0
  5
317
  0
POLYLINE
  8
GRID_MINOR
  6
CONTINUOUS
 62
     8
  5
318
 66
     1
 10
0.0
 20
0.0
 30
0.0
1001
VDEXTRAPARAM
1071
        0
1071
        0
1071
        0
1040
1.0
1000

1000

1001
VD_XPROPERTIES
  0
VERTEX
  8
GRID_MINOR
  6
CONTINUOUS
 62
     8
  5
319
 10
0.0
 20
3.9
 30
0.0
  0
VERTEX
  8
GRID_MINOR
  6
CONTINUOUS
 62
     8
  5
31A
 10
13.0
 20
3.9
 30
0.0
  0
SEQEND
  8
0
  5
31B
  0
POLYLINE
  8
GRID_MINOR
  6
CONTINUOUS
 62
     8
  5
31C
 66
     1
 10
0.0
 20
0.0
 30
0.0
1001
VDEXTRAPARAM
1071
        0
1071
        0
1071
        0
1040
1.0
1000

1000

1001
VD_XPROPERTIES
  0
VERTEX
  8
GRID_MINOR
  6
CONTINUOUS
 62
     8
  5
31D
 10
0.0
 20
4.1
 30
0.0
  0
VERTEX
  8
GRID_MINOR
  6
CONTINUOUS
 62
     8
  5
31E
 10
13.0
 20
4.1
 30
0.0
  0
SEQEND
  8
0
  5
31F
  0
POLYLINE
  8
GRID_MINOR
  6
CONTINUOUS
 62
     8
  5
320
 66
     1
 10
0.0
 20
0.0
 30
0.0
1001
VDEXTRAPARAM
1071
        0
1071
        0
1071
        0
1040
1.0
1000

1000

1001
VD_XPROPERTIES
  0
VERTEX
  8
GRID_MINOR
  6
CONTINUOUS
 62
     8
  5
321
 10
0.0
 20
4.2
 30
0.0
  0
VERTEX
  8
GRID_MINOR
  6
CONTINUOUS
 62
     8
  5
322
 10
13.0
 20
4.2
 30
0.0
  0
SEQEND
  8
0
  5
323
  0
POLYLINE
  8
GRID_MAJOR
  5
324
 66
     1
 10
0.0
 20
0.0
 30
0.0
1001
VDEXTRAPARAM
1071
        0
1071
        0
1071
        0
1040
1.0
1000

1000

1001
VD_XPROPERTIES
  0
VERTEX
  8
GRID_MAJOR
  5
325
 10
0.0
 20
5.0
 30
0.0
  0
VERTEX
  8
GRID_MAJOR
  5
326
 10
13.0
 20
5.0
 30
0.0
  0
SEQEND
  8
0
  5
327
  0
POLYLINE
  8
GRID_MAJOR
  5
328
 66
     1
 10
0.0
 20
0.0
 30
0.0
1001
VDEXTRAPARAM
1071
        0
1071
        0
1071
        0
1040
1.0
1000

1000

1001
VD_XPROPERTIES
  0
VERTEX
  8
GRID_MAJOR
  5
329
 10
0.0
 20
6.0
 30
0.0
  0
VERTEX
  8
GRID_MAJOR
  5
32A
 10
13.0
 20
6.0
 30
0.0
  0
SEQEND
  8
0
  5
32B
  0
POLYLINE
  8
GRID_MAJOR
  5
32C
 66
     1
 10
0.0
 20
0.0
 30
0.0
1001
VDEXTRAPARAM
1071
        0
1071
        0
1071
        0
1040
1.0
1000

1000

1001
VD_XPROPERTIES
  0
VERTEX
  8
GRID_MAJOR
  5
32D
 10
0.0
 20
7.0
 30
0.0
  0
VERTEX
  8
GRID_MAJOR
  5
32E
 10
13.0
 20
7.0
 30
0.0
  0
SEQEND
  8
0
  5
32F
  0
POLYLINE
  8
GRID_MINOR
  6
CONTINUOUS
 62
     8
  5
330
 66
     1
 10
0.0
 20
0.0
 30
0.0
1001
VDEXTRAPARAM
1071
        0
1071
        0
1071
        0
1040
1.0
1000

1000

1001
VD_XPROPERTIES
  0
VERTEX
  8
GRID_MINOR
  6
CONTINUOUS
 62
     8
  5
331
 10
0.0
 20
4.3
 30
0.0
  0
VERTEX
  8
GRID_MINOR
  6
CONTINUOUS
 62
     8
  5
332
 10
13.0
 20
4.3
 30
0.0
  0
SEQEND
  8
0
  5
333
  0
POLYLINE
  8
GRID_MINOR
  6
CONTINUOUS
 62
     8
  5
334
 66
     1
 10
0.0
 20
0.0
 30
0.0
1001
VDEXTRAPARAM
1071
        0
1071
        0
1071
        0
1040
1.0
1000

1000

1001
VD_XPROPERTIES
  0
VERTEX
  8
GRID_MINOR
  6
CONTINUOUS
 62
     8
  5
335
 10
0.0
 20
4.4
 30
0.0
  0
VERTEX
  8
GRID_MINOR
  6
CONTINUOUS
 62
     8
  5
336
 10
13.0
 20
4.4
 30
0.0
  0
SEQEND
  8
0
  5
337
  0
POLYLINE
  8
GRID_MINOR
  6
CONTINUOUS
 62
     8
  5
338
 66
     1
 10
0.0
 20
0.0
 30
0.0
1001
VDEXTRAPARAM
1071
        0
1071
        0
1071
        0
1040
1.0
1000

1000

1001
VD_XPROPERTIES
  0
VERTEX
  8
GRID_MINOR
  6
CONTINUOUS
 62
     8
  5
339
 10
0.0
 20
4.5
 30
0.0
  0
VERTEX
  8
GRID_MINOR
  6
CONTINUOUS
 62
     8
  5
33A
 10
13.0
 20
4.5
 30
0.0
  0
SEQEND
  8
0
  5
33B
  0
POLYLINE
  8
GRID_MINOR
  6
CONTINUOUS
 62
     8
  5
33C
 66
     1
 10
0.0
 20
0.0
 30
0.0
1001
VDEXTRAPARAM
1071
        0
1071
        0
1071
        0
1040
1.0
1000

1000

1001
VD_XPROPERTIES
  0
VERTEX
  8
GRID_MINOR
  6
CONTINUOUS
 62
     8
  5
33D
 10
0.0
 20
4.6
 30
0.0
  0
VERTEX
  8
GRID_MINOR
  6
CONTINUOUS
 62
     8
  5
33E
 10
13.0
 20
4.6
 30
0.0
  0
SEQEND
  8
0
  5
33F
  0
POLYLINE
  8
GRID_MINOR
  6
CONTINUOUS
 62
     8
  5
340
 66
     1
 10
0.0
 20
0.0
 30
0.0
1001
VDEXTRAPARAM
1071
        0
1071
        0
1071
        0
1040
1.0
1000

1000

1001
VD_XPROPERTIES
  0
VERTEX
  8
GRID_MINOR
  6
CONTINUOUS
 62
     8
  5
341
 10
0.0
 20
4.7
 30
0.0
  0
VERTEX
  8
GRID_MINOR
  6
CONTINUOUS
 62
     8
  5
342
 10
13.0
 20
4.7
 30
0.0
  0
SEQEND
  8
0
  5
343
  0
POLYLINE
  8
GRID_MINOR
  6
CONTINUOUS
 62
     8
  5
344
 66
     1
 10
0.0
 20
0.0
 30
0.0
1001
VDEXTRAPARAM
1071
        0
1071
        0
1071
        0
1040
1.0
1000

1000

1001
VD_XPROPERTIES
  0
VERTEX
  8
GRID_MINOR
  6
CONTINUOUS
 62
     8
  5
345
 10
0.0
 20
4.8
 30
0.0
  0
VERTEX
  8
GRID_MINOR
  6
CONTINUOUS
 62
     8
  5
346
 10
13.0
 20
4.8
 30
0.0
  0
SEQEND
  8
0
  5
347
  0
POLYLINE
  8
GRID_MINOR
  6
CONTINUOUS
 62
     8
  5
348
 66
     1
 10
0.0
 20
0.0
 30
0.0
1001
VDEXTRAPARAM
1071
        0
1071
        0
1071
        0
1040
1.0
1000

1000

1001
VD_XPROPERTIES
  0
VERTEX
  8
GRID_MINOR
  6
CONTINUOUS
 62
     8
  5
349
 10
0.0
 20
4.9
 30
0.0
  0
VERTEX
  8
GRID_MINOR
  6
CONTINUOUS
 62
     8
  5
34A
 10
13.0
 20
4.9
 30
0.0
  0
SEQEND
  8
0
  5
34B
  0
POLYLINE
  8
GRID_MINOR
  6
CONTINUOUS
 62
     8
  5
34C
 66
     1
 10
0.0
 20
0.0
 30
0.0
1001
VDEXTRAPARAM
1071
        0
1071
        0
1071
        0
1040
1.0
1000

1000

1001
VD_XPROPERTIES
  0
VERTEX
  8
GRID_MINOR
  6
CONTINUOUS
 62
     8
  5
34D
 10
0.0
 20
5.1
 30
0.0
  0
VERTEX
  8
GRID_MINOR
  6
CONTINUOUS
 62
     8
  5
34E
 10
13.0
 20
5.1
 30
0.0
  0
SEQEND
  8
0
  5
34F
  0
POLYLINE
  8
GRID_MINOR
  6
CONTINUOUS
 62
     8
  5
350
 66
     1
 10
0.0
 20
0.0
 30
0.0
1001
VDEXTRAPARAM
1071
        0
1071
        0
1071
        0
1040
1.0
1000

1000

1001
VD_XPROPERTIES
  0
VERTEX
  8
GRID_MINOR
  6
CONTINUOUS
 62
     8
  5
351
 10
0.0
 20
5.2
 30
0.0
  0
VERTEX
  8
GRID_MINOR
  6
CONTINUOUS
 62
     8
  5
352
 10
13.0
 20
5.2
 30
0.0
  0
SEQEND
  8
0
  5
353
  0
POLYLINE
  8
GRID_MINOR
  6
CONTINUOUS
 62
     8
  5
354
 66
     1
 10
0.0
 20
0.0
 30
0.0
1001
VDEXTRAPARAM
1071
        0
1071
        0
1071
        0
1040
1.0
1000

1000

1001
VD_XPROPERTIES
  0
VERTEX
  8
GRID_MINOR
  6
CONTINUOUS
 62
     8
  5
355
 10
0.0
 20
5.3
 30
0.0
  0
VERTEX
  8
GRID_MINOR
  6
CONTINUOUS
 62
     8
  5
356
 10
13.0
 20
5.3
 30
0.0
  0
SEQEND
  8
0
  5
357
  0
POLYLINE
  8
GRID_MINOR
  6
CONTINUOUS
 62
     8
  5
358
 66
     1
 10
0.0
 20
0.0
 30
0.0
1001
VDEXTRAPARAM
1071
        0
1071
        0
1071
        0
1040
1.0
1000

1000

1001
VD_XPROPERTIES
  0
VERTEX
  8
GRID_MINOR
  6
CONTINUOUS
 62
     8
  5
359
 10
0.0
 20
5.4
 30
0.0
  0
VERTEX
  8
GRID_MINOR
  6
CONTINUOUS
 62
     8
  5
35A
 10
13.0
 20
5.4
 30
0.0
  0
SEQEND
  8
0
  5
35B
  0
POLYLINE
  8
GRID_MINOR
  6
CONTINUOUS
 62
     8
  5
35C
 66
     1
 10
0.0
 20
0.0
 30
0.0
1001
VDEXTRAPARAM
1071
        0
1071
        0
1071
        0
1040
1.0
1000

1000

1001
VD_XPROPERTIES
  0
VERTEX
  8
GRID_MINOR
  6
CONTINUOUS
 62
     8
  5
35D
 10
0.0
 20
5.5
 30
0.0
  0
VERTEX
  8
GRID_MINOR
  6
CONTINUOUS
 62
     8
  5
35E
 10
13.0
 20
5.5
 30
0.0
  0
SEQEND
  8
0
  5
35F
  0
POLYLINE
  8
GRID_MINOR
  6
CONTINUOUS
 62
     8
  5
360
 66
     1
 10
0.0
 20
0.0
 30
0.0
1001
VDEXTRAPARAM
1071
        0
1071
        0
1071
        0
1040
1.0
1000

1000

1001
VD_XPROPERTIES
  0
VERTEX
  8
GRID_MINOR
  6
CONTINUOUS
 62
     8
  5
361
 10
0.0
 20
5.6
 30
0.0
  0
VERTEX
  8
GRID_MINOR
  6
CONTINUOUS
 62
     8
  5
362
 10
13.0
 20
5.6
 30
0.0
  0
SEQEND
  8
0
  5
363
  0
POLYLINE
  8
GRID_MINOR
  6
CONTINUOUS
 62
     8
  5
364
 66
     1
 10
0.0
 20
0.0
 30
0.0
1001
VDEXTRAPARAM
1071
        0
1071
        0
1071
        0
1040
1.0
1000

1000

1001
VD_XPROPERTIES
  0
VERTEX
  8
GRID_MINOR
  6
CONTINUOUS
 62
     8
  5
365
 10
0.0
 20
5.7
 30
0.0
  0
VERTEX
  8
GRID_MINOR
  6
CONTINUOUS
 62
     8
  5
366
 10
13.0
 20
5.7
 30
0.0
  0
SEQEND
  8
0
  5
367
  0
POLYLINE
  8
GRID_MINOR
  6
CONTINUOUS
 62
     8
  5
368
 66
     1
 10
0.0
 20
0.0
 30
0.0
1001
VDEXTRAPARAM
1071
        0
1071
        0
1071
        0
1040
1.0
1000

1000

1001
VD_XPROPERTIES
  0
VERTEX
  8
GRID_MINOR
  6
CONTINUOUS
 62
     8
  5
369
 10
0.0
 20
5.8
 30
0.0
  0
VERTEX
  8
GRID_MINOR
  6
CONTINUOUS
 62
     8
  5
36A
 10
13.0
 20
5.8
 30
0.0
  0
SEQEND
  8
0
  5
36B
  0
POLYLINE
  8
GRID_MINOR
  6
CONTINUOUS
 62
     8
  5
36C
 66
     1
 10
0.0
 20
0.0
 30
0.0
1001
VDEXTRAPARAM
1071
        0
1071
        0
1071
        0
1040
1.0
1000

1000

1001
VD_XPROPERTIES
  0
VERTEX
  8
GRID_MINOR
  6
CONTINUOUS
 62
     8
  5
36D
 10
0.0
 20
5.9
 30
0.0
  0
VERTEX
  8
GRID_MINOR
  6
CONTINUOUS
 62
     8
  5
36E
 10
13.0
 20
5.9
 30
0.0
  0
SEQEND
  8
0
  5
36F
  0
POLYLINE
  8
GRID_MINOR
  6
CONTINUOUS
 62
     8
  5
370
 66
     1
 10
0.0
 20
0.0
 30
0.0
1001
VDEXTRAPARAM
1071
        0
1071
        0
1071
        0
1040
1.0
1000

1000

1001
VD_XPROPERTIES
  0
VERTEX
  8
GRID_MINOR
  6
CONTINUOUS
 62
     8
  5
371
 10
0.0
 20
6.1
 30
0.0
  0
VERTEX
  8
GRID_MINOR
  6
CONTINUOUS
 62
     8
  5
372
 10
13.0
 20
6.1
 30
0.0
  0
SEQEND
  8
0
  5
373
  0
POLYLINE
  8
GRID_MINOR
  6
CONTINUOUS
 62
     8
  5
374
 66
     1
 10
0.0
 20
0.0
 30
0.0
1001
VDEXTRAPARAM
1071
        0
1071
        0
1071
        0
1040
1.0
1000

1000

1001
VD_XPROPERTIES
  0
VERTEX
  8
GRID_MINOR
  6
CONTINUOUS
 62
     8
  5
375
 10
0.0
 20
6.2
 30
0.0
  0
VERTEX
  8
GRID_MINOR
  6
CONTINUOUS
 62
     8
  5
376
 10
13.0
 20
6.2
 30
0.0
  0
SEQEND
  8
0
  5
377
  0
POLYLINE
  8
GRID_MINOR
  6
CONTINUOUS
 62
     8
  5
378
 66
     1
 10
0.0
 20
0.0
 30
0.0
1001
VDEXTRAPARAM
1071
        0
1071
        0
1071
        0
1040
1.0
1000

1000

1001
VD_XPROPERTIES
  0
VERTEX
  8
GRID_MINOR
  6
CONTINUOUS
 62
     8
  5
379
 10
0.0
 20
6.3
 30
0.0
  0
VERTEX
  8
GRID_MINOR
  6
CONTINUOUS
 62
     8
  5
37A
 10
13.0
 20
6.3
 30
0.0
  0
SEQEND
  8
0
  5
37B
  0
POLYLINE
  8
GRID_MINOR
  6
CONTINUOUS
 62
     8
  5
37C
 66
     1
 10
0.0
 20
0.0
 30
0.0
1001
VDEXTRAPARAM
1071
        0
1071
        0
1071
        0
1040
1.0
1000

1000

1001
VD_XPROPERTIES
  0
VERTEX
  8
GRID_MINOR
  6
CONTINUOUS
 62
     8
  5
37D
 10
0.0
 20
6.4
 30
0.0
  0
VERTEX
  8
GRID_MINOR
  6
CONTINUOUS
 62
     8
  5
37E
 10
13.0
 20
6.4
 30
0.0
  0
SEQEND
  8
0
  5
37F
  0
POLYLINE
  8
GRID_MINOR
  6
CONTINUOUS
 62
     8
  5
380
 66
     1
 10
0.0
 20
0.0
 30
0.0
1001
VDEXTRAPARAM
1071
        0
1071
        0
1071
        0
1040
1.0
1000

1000

1001
VD_XPROPERTIES
  0
VERTEX
  8
GRID_MINOR
  6
CONTINUOUS
 62
     8
  5
381
 10
0.0
 20
6.5
 30
0.0
  0
VERTEX
  8
GRID_MINOR
  6
CONTINUOUS
 62
     8
  5
382
 10
13.0
 20
6.5
 30
0.0
  0
SEQEND
  8
0
  5
383
  0
POLYLINE
  8
GRID_MINOR
  6
CONTINUOUS
 62
     8
  5
384
 66
     1
 10
0.0
 20
0.0
 30
0.0
1001
VDEXTRAPARAM
1071
        0
1071
        0
1071
        0
1040
1.0
1000

1000

1001
VD_XPROPERTIES
  0
VERTEX
  8
GRID_MINOR
  6
CONTINUOUS
 62
     8
  5
385
 10
0.0
 20
6.6
 30
0.0
  0
VERTEX
  8
GRID_MINOR
  6
CONTINUOUS
 62
     8
  5
386
 10
13.0
 20
6.6
 30
0.0
  0
SEQEND
  8
0
  5
387
  0
POLYLINE
  8
GRID_MINOR
  6
CONTINUOUS
 62
     8
  5
388
 66
     1
 10
0.0
 20
0.0
 30
0.0
1001
VDEXTRAPARAM
1071
        0
1071
        0
1071
        0
1040
1.0
1000

1000

1001
VD_XPROPERTIES
  0
VERTEX
  8
GRID_MINOR
  6
CONTINUOUS
 62
     8
  5
389
 10
0.0
 20
6.7
 30
0.0
  0
VERTEX
  8
GRID_MINOR
  6
CONTINUOUS
 62
     8
  5
38A
 10
13.0
 20
6.7
 30
0.0
  0
SEQEND
  8
0
  5
38B
  0
POLYLINE
  8
GRID_MINOR
  6
CONTINUOUS
 62
     8
  5
38C
 66
     1
 10
0.0
 20
0.0
 30
0.0
1001
VDEXTRAPARAM
1071
        0
1071
        0
1071
        0
1040
1.0
1000

1000

1001
VD_XPROPERTIES
  0
VERTEX
  8
GRID_MINOR
  6
CONTINUOUS
 62
     8
  5
38D
 10
0.0
 20
6.8
 30
0.0
  0
VERTEX
  8
GRID_MINOR
  6
CONTINUOUS
 62
     8
  5
38E
 10
13.0
 20
6.8
 30
0.0
  0
SEQEND
  8
0
  5
38F
  0
POLYLINE
  8
GRID_MINOR
  6
CONTINUOUS
 62
     8
  5
390
 66
     1
 10
0.0
 20
0.0
 30
0.0
1001
VDEXTRAPARAM
1071
        0
1071
        0
1071
        0
1040
1.0
1000

1000

1001
VD_XPROPERTIES
  0
VERTEX
  8
GRID_MINOR
  6
CONTINUOUS
 62
     8
  5
391
 10
0.0
 20
6.9
 30
0.0
  0
VERTEX
  8
GRID_MINOR
  6
CONTINUOUS
 62
     8
  5
392
 10
13.0
 20
6.9
 30
0.0
  0
SEQEND
  8
0
  5
393
  0
POLYLINE
  8
GRID_MINOR
  6
CONTINUOUS
 62
     8
  5
394
 66
     1
 10
0.0
 20
0.0
 30
0.0
1001
VDEXTRAPARAM
1071
        0
1071
        0
1071
        0
1040
1.0
1000

1000

1001
VD_XPROPERTIES
  0
VERTEX
  8
GRID_MINOR
  6
CONTINUOUS
 62
     8
  5
395
 10
0.0
 20
7.1
 30
0.0
  0
VERTEX
  8
GRID_MINOR
  6
CONTINUOUS
 62
     8
  5
396
 10
13.0
 20
7.1
 30
0.0
  0
SEQEND
  8
0
  5
397
  0
POLYLINE
  8
GRID_MINOR
  6
CONTINUOUS
 62
     8
  5
398
 66
     1
 10
0.0
 20
0.0
 30
0.0
1001
VDEXTRAPARAM
1071
        0
1071
        0
1071
        0
1040
1.0
1000

1000

1001
VD_XPROPERTIES
  0
VERTEX
  8
GRID_MINOR
  6
CONTINUOUS
 62
     8
  5
399
 10
0.0
 20
7.2
 30
0.0
  0
VERTEX
  8
GRID_MINOR
  6
CONTINUOUS
 62
     8
  5
39A
 10
13.0
 20
7.2
 30
0.0
  0
SEQEND
  8
0
  5
39B
  0
POLYLINE
  8
GRID_MINOR
  6
CONTINUOUS
 62
     8
  5
39C
 66
     1
 10
0.0
 20
0.0
 30
0.0
1001
VDEXTRAPARAM
1071
        0
1071
        0
1071
        0
1040
1.0
1000

1000

1001
VD_XPROPERTIES
  0
VERTEX
  8
GRID_MINOR
  6
CONTINUOUS
 62
     8
  5
39D
 10
0.0
 20
7.3
 30
0.0
  0
VERTEX
  8
GRID_MINOR
  6
CONTINUOUS
 62
     8
  5
39E
 10
13.0
 20
7.3
 30
0.0
  0
SEQEND
  8
0
  5
39F
  0
POLYLINE
  8
GRID_MAJOR
  6
CONTINUOUS
  5
3A0
 66
     1
 10
0.0
 20
0.0
 30
0.0
1001
VDEXTRAPARAM
1071
        0
1071
        0
1071
        0
1040
1.0
1000

1000

1001
VD_XPROPERTIES
  0
VERTEX
  8
GRID_MAJOR
  6
CONTINUOUS
  5
3A1
 10
0.0
 20
8.0
 30
0.0
  0
VERTEX
  8
GRID_MAJOR
  6
CONTINUOUS
  5
3A2
 10
13.0
 20
8.0
 30
0.0
  0
SEQEND
  8
0
  5
3A3
  0
POLYLINE
  8
GRID_MAJOR
  5
3A4
 66
     1
 10
0.0
 20
0.0
 30
0.0
1001
VDEXTRAPARAM
1071
        0
1071
        0
1071
        0
1040
1.0
1000

1000

1001
VD_XPROPERTIES
  0
VERTEX
  8
GRID_MAJOR
  5
3A5
 10
0.0
 20
9.0
 30
0.0
  0
VERTEX
  8
GRID_MAJOR
  5
3A6
 10
13.0
 20
9.0
 30
0.0
  0
SEQEND
  8
0
  5
3A7
  0
POLYLINE
  8
GRID_MINOR
  6
CONTINUOUS
 62
     8
  5
3A8
 66
     1
 10
0.0
 20
0.0
 30
0.0
1001
VDEXTRAPARAM
1071
        0
1071
        0
1071
        0
1040
1.0
1000

1000

1001
VD_XPROPERTIES
  0
VERTEX
  8
GRID_MINOR
  6
CONTINUOUS
 62
     8
  5
3A9
 10
0.0
 20
7.4
 30
0.0
  0
VERTEX
  8
GRID_MINOR
  6
CONTINUOUS
 62
     8
  5
3AA
 10
13.0
 20
7.4
 30
0.0
  0
SEQEND
  8
0
  5
3AB
  0
POLYLINE
  8
GRID_MINOR
  6
CONTINUOUS
 62
     8
  5
3AC
 66
     1
 10
0.0
 20
0.0
 30
0.0
1001
VDEXTRAPARAM
1071
        0
1071
        0
1071
        0
1040
1.0
1000

1000

1001
VD_XPROPERTIES
  0
VERTEX
  8
GRID_MINOR
  6
CONTINUOUS
 62
     8
  5
3AD
 10
0.0
 20
7.5
 30
0.0
  0
VERTEX
  8
GRID_MINOR
  6
CONTINUOUS
 62
     8
  5
3AE
 10
13.0
 20
7.5
 30
0.0
  0
SEQEND
  8
0
  5
3AF
  0
POLYLINE
  8
GRID_MINOR
  6
CONTINUOUS
 62
     8
  5
3B0
 66
     1
 10
0.0
 20
0.0
 30
0.0
1001
VDEXTRAPARAM
1071
        0
1071
        0
1071
        0
1040
1.0
1000

1000

1001
VD_XPROPERTIES
  0
VERTEX
  8
GRID_MINOR
  6
CONTINUOUS
 62
     8
  5
3B1
 10
0.0
 20
7.6
 30
0.0
  0
VERTEX
  8
GRID_MINOR
  6
CONTINUOUS
 62
     8
  5
3B2
 10
13.0
 20
7.6
 30
0.0
  0
SEQEND
  8
0
  5
3B3
  0
POLYLINE
  8
GRID_MINOR
  6
CONTINUOUS
 62
     8
  5
3B4
 66
     1
 10
0.0
 20
0.0
 30
0.0
1001
VDEXTRAPARAM
1071
        0
1071
        0
1071
        0
1040
1.0
1000

1000

1001
VD_XPROPERTIES
  0
VERTEX
  8
GRID_MINOR
  6
CONTINUOUS
 62
     8
  5
3B5
 10
0.0
 20
7.7
 30
0.0
  0
VERTEX
  8
GRID_MINOR
  6
CONTINUOUS
 62
     8
  5
3B6
 10
13.0
 20
7.7
 30
0.0
  0
SEQEND
  8
0
  5
3B7
  0
POLYLINE
  8
GRID_MINOR
  6
CONTINUOUS
 62
     8
  5
3B8
 66
     1
 10
0.0
 20
0.0
 30
0.0
1001
VDEXTRAPARAM
1071
        0
1071
        0
1071
        0
1040
1.0
1000

1000

1001
VD_XPROPERTIES
  0
VERTEX
  8
GRID_MINOR
  6
CONTINUOUS
 62
     8
  5
3B9
 10
0.0
 20
7.8
 30
0.0
  0
VERTEX
  8
GRID_MINOR
  6
CONTINUOUS
 62
     8
  5
3BA
 10
13.0
 20
7.8
 30
0.0
  0
SEQEND
  8
0
  5
3BB
  0
POLYLINE
  8
GRID_MINOR
  6
CONTINUOUS
 62
     8
  5
3BC
 66
     1
 10
0.0
 20
0.0
 30
0.0
1001
VDEXTRAPARAM
1071
        0
1071
        0
1071
        0
1040
1.0
1000

1000

1001
VD_XPROPERTIES
  0
VERTEX
  8
GRID_MINOR
  6
CONTINUOUS
 62
     8
  5
3BD
 10
0.0
 20
7.9
 30
0.0
  0
VERTEX
  8
GRID_MINOR
  6
CONTINUOUS
 62
     8
  5
3BE
 10
13.0
 20
7.9
 30
0.0
  0
SEQEND
  8
0
  5
3BF
  0
POLYLINE
  8
GRID_MINOR
  6
CONTINUOUS
 62
     8
  5
3C0
 66
     1
 10
0.0
 20
0.0
 30
0.0
1001
VDEXTRAPARAM
1071
        0
1071
        0
1071
        0
1040
1.0
1000

1000

1001
VD_XPROPERTIES
  0
VERTEX
  8
GRID_MINOR
  6
CONTINUOUS
 62
     8
  5
3C1
 10
0.0
 20
8.1
 30
0.0
  0
VERTEX
  8
GRID_MINOR
  6
CONTINUOUS
 62
     8
  5
3C2
 10
13.0
 20
8.1
 30
0.0
  0
SEQEND
  8
0
  5
3C3
  0
POLYLINE
  8
GRID_MINOR
  6
CONTINUOUS
 62
     8
  5
3C4
 66
     1
 10
0.0
 20
0.0
 30
0.0
1001
VDEXTRAPARAM
1071
        0
1071
        0
1071
        0
1040
1.0
1000

1000

1001
VD_XPROPERTIES
  0
VERTEX
  8
GRID_MINOR
  6
CONTINUOUS
 62
     8
  5
3C5
 10
0.0
 20
8.2
 30
0.0
  0
VERTEX
  8
GRID_MINOR
  6
CONTINUOUS
 62
     8
  5
3C6
 10
13.0
 20
8.2
 30
0.0
  0
SEQEND
  8
0
  5
3C7
  0
POLYLINE
  8
GRID_MINOR
  6
CONTINUOUS
 62
     8
  5
3C8
 66
     1
 10
0.0
 20
0.0
 30
0.0
1001
VDEXTRAPARAM
1071
        0
1071
        0
1071
        0
1040
1.0
1000

1000

1001
VD_XPROPERTIES
  0
VERTEX
  8
GRID_MINOR
  6
CONTINUOUS
 62
     8
  5
3C9
 10
0.0
 20
8.3
 30
0.0
  0
VERTEX
  8
GRID_MINOR
  6
CONTINUOUS
 62
     8
  5
3CA
 10
13.0
 20
8.3
 30
0.0
  0
SEQEND
  8
0
  5
3CB
  0
POLYLINE
  8
GRID_MINOR
  6
CONTINUOUS
 62
     8
  5
3CC
 66
     1
 10
0.0
 20
0.0
 30
0.0
1001
VDEXTRAPARAM
1071
        0
1071
        0
1071
        0
1040
1.0
1000

1000

1001
VD_XPROPERTIES
  0
VERTEX
  8
GRID_MINOR
  6
CONTINUOUS
 62
     8
  5
3CD
 10
0.0
 20
8.4
 30
0.0
  0
VERTEX
  8
GRID_MINOR
  6
CONTINUOUS
 62
     8
  5
3CE
 10
13.0
 20
8.4
 30
0.0
  0
SEQEND
  8
0
  5
3CF
  0
POLYLINE
  8
GRID_MINOR
  6
CONTINUOUS
 62
     8
  5
3D0
 66
     1
 10
0.0
 20
0.0
 30
0.0
1001
VDEXTRAPARAM
1071
        0
1071
        0
1071
        0
1040
1.0
1000

1000

1001
VD_XPROPERTIES
  0
VERTEX
  8
GRID_MINOR
  6
CONTINUOUS
 62
     8
  5
3D1
 10
0.0
 20
8.5
 30
0.0
  0
VERTEX
  8
GRID_MINOR
  6
CONTINUOUS
 62
     8
  5
3D2
 10
13.0
 20
8.5
 30
0.0
  0
SEQEND
  8
0
  5
3D3
  0
POLYLINE
  8
GRID_MINOR
  6
CONTINUOUS
 62
     8
  5
3D4
 66
     1
 10
0.0
 20
0.0
 30
0.0
1001
VDEXTRAPARAM
1071
        0
1071
        0
1071
        0
1040
1.0
1000

1000

1001
VD_XPROPERTIES
  0
VERTEX
  8
GRID_MINOR
  6
CONTINUOUS
 62
     8
  5
3D5
 10
0.0
 20
8.6
 30
0.0
  0
VERTEX
  8
GRID_MINOR
  6
CONTINUOUS
 62
     8
  5
3D6
 10
13.0
 20
8.6
 30
0.0
  0
SEQEND
  8
0
  5
3D7
  0
POLYLINE
  8
GRID_MINOR
  6
CONTINUOUS
 62
     8
  5
3D8
 66
     1
 10
0.0
 20
0.0
 30
0.0
1001
VDEXTRAPARAM
1071
        0
1071
        0
1071
        0
1040
1.0
1000

1000

1001
VD_XPROPERTIES
  0
VERTEX
  8
GRID_MINOR
  6
CONTINUOUS
 62
     8
  5
3D9
 10
0.0
 20
8.7
 30
0.0
  0
VERTEX
  8
GRID_MINOR
  6
CONTINUOUS
 62
     8
  5
3DA
 10
13.0
 20
8.7
 30
0.0
  0
SEQEND
  8
0
  5
3DB
  0
POLYLINE
  8
GRID_MINOR
  6
CONTINUOUS
 62
     8
  5
3DC
 66
     1
 10
0.0
 20
0.0
 30
0.0
1001
VDEXTRAPARAM
1071
        0
1071
        0
1071
        0
1040
1.0
1000

1000

1001
VD_XPROPERTIES
  0
VERTEX
  8
GRID_MINOR
  6
CONTINUOUS
 62
     8
  5
3DD
 10
0.0
 20
8.8
 30
0.0
  0
VERTEX
  8
GRID_MINOR
  6
CONTINUOUS
 62
     8
  5
3DE
 10
13.0
 20
8.8
 30
0.0
  0
SEQEND
  8
0
  5
3DF
  0
POLYLINE
  8
GRID_MINOR
  6
CONTINUOUS
 62
     8
  5
3E0
 66
     1
 10
0.0
 20
0.0
 30
0.0
1001
VDEXTRAPARAM
1071
        0
1071
        0
1071
        0
1040
1.0
1000

1000

1001
VD_XPROPERTIES
  0
VERTEX
  8
GRID_MINOR
  6
CONTINUOUS
 62
     8
  5
3E1
 10
0.0
 20
8.9
 30
0.0
  0
VERTEX
  8
GRID_MINOR
  6
CONTINUOUS
 62
     8
  5
3E2
 10
13.0
 20
8.9
 30
0.0
  0
SEQEND
  8
0
  5
3E3
  0
ENDBLK
  8
0
  5
3E4
  0
BLOCK
  8
0
  5
3E5
  2
ROCK
 70
     0
 10
0.0
 20
0.0
 30
0.0
  3
ROCK
1001
VD_XPROPERTIES
  0
LINE
  8
ROCK
 62
     1
  5
3E6
 10
0.850928
 20
0.001282
 30
0.0
 11
0.880387
 21
-0.028177
 31
0.0
1001
VD_XPROPERTIES
  0
LINE
  8
ROCK
 62
     1
  5
3E7
 10
0.832085
 20
-0.017561
 30
0.0
 11
0.880387
 21
-0.065863
 31
0.0
1001
VD_XPROPERTIES
  0
LINE
  8
ROCK
 62
     1
  5
3E8
 10
0.813242
 20
-0.036404
 30
0.0
 11
0.875607
 21
-0.098768
 31
0.0
1001
VD_XPROPERTIES
  0
LINE
  8
ROCK
 62
     1
  5
3E9
 10
0.775501
 20
0.001282
 30
0.0
 11
0.713192
 21
-0.061027
 31
0.0
1001
VD_XPROPERTIES
  0
LINE
  8
ROCK
 62
     1
  5
3EA
 10
0.813187
 20
0.001282
 30
0.0
 11
0.732035
 21
-0.07987
 31
0.0
1001
VD_XPROPERTIES
  0
LINE
  8
ROCK
 62
     1
  5
3EB
 10
0.850928
 20
0.001282
 30
0.0
 11
0.750878
 21
-0.098768
 31
0.0
1001
VD_XPROPERTIES
  0
LINE
  8
ROCK
 62
     1
  5
3EC
 10
0.650828
 20
0.001282
 30
0.0
 11
0.750878
 21
-0.098768
 31
0.0
1001
VD_XPROPERTIES
  0
LINE
  8
ROCK
 62
     1
  5
3ED
 10
0.631985
 20
-0.017561
 30
0.0
 11
0.713192
 21
-0.098768
 31
0.0
1001
VD_XPROPERTIES
  0
LINE
  8
ROCK
 62
     1
  5
3EE
 10
0.613142
 20
-0.036404
 30
0.0
 11
0.675507
 21
-0.098768
 31
0.0
1001
VD_XPROPERTIES
  0
LINE
  8
ROCK
 62
     1
  5
3EF
 10
0.575401
 20
0.001282
 30
0.0
 11
0.513092
 21
-0.061027
 31
0.0
1001
VD_XPROPERTIES
  0
LINE
  8
ROCK
 62
     1
  5
3F0
 10
0.613087
 20
0.001282
 30
0.0
 11
0.531935
 21
-0.07987
 31
0.0
1001
VD_XPROPERTIES
  0
LINE
  8
ROCK
 62
     1
  5
3F1
 10
0.650828
 20
0.001282
 30
0.0
 11
0.550778
 21
-0.098768
 31
0.0
1001
VD_XPROPERTIES
  0
LINE
  8
ROCK
 62
     1
  5
3F2
 10
0.450728
 20
0.001282
 30
0.0
 11
0.550778
 21
-0.098768
 31
0.0
1001
VD_XPROPERTIES
  0
LINE
  8
ROCK
 62
     1
  5
3F3
 10
0.431885
 20
-0.017561
 30
0.0
 11
0.513092
 21
-0.098768
 31
0.0
1001
VD_XPROPERTIES
  0
LINE
  8
ROCK
 62
     1
  5
3F4
 10
0.413042
 20
-0.036404
 30
0.0
 11
0.475407
 21
-0.098768
 31
0.0
1001
VD_XPROPERTIES
  0
LINE
  8
ROCK
 62
     1
  5
3F5
 10
0.250628
 20
0.001282
 30
0.0
 11
0.350678
 21
-0.098768
 31
0.0
1001
VD_XPROPERTIES
  0
LINE
  8
ROCK
 62
     1
  5
3F6
 10
0.22984
 20
-0.015615
 30
0.0
 11
0.312992
 21
-0.098768
 31
0.0
1001
VD_XPROPERTIES
  0
LINE
  8
ROCK
 62
     1
  5
3F7
 10
0.210997
 20
-0.034458
 30
0.0
 11
0.275307
 21
-0.098768
 31
0.0
1001
VD_XPROPERTIES
  0
LINE
  8
ROCK
 62
     1
  5
3F8
 10
0.375301
 20
0.001282
 30
0.0
 11
0.312992
 21
-0.061027
 31
0.0
1001
VD_XPROPERTIES
  0
LINE
  8
ROCK
 62
     1
  5
3F9
 10
0.412987
 20
0.001282
 30
0.0
 11
0.331835
 21
-0.07987
 31
0.0
1001
VD_XPROPERTIES
  0
LINE
  8
ROCK
 62
     1
  5
3FA
 10
0.450728
 20
0.001282
 30
0.0
 11
0.350678
 21
-0.098768
 31
0.0
1001
VD_XPROPERTIES
  0
LINE
  8
ROCK
 62
     1
  5
3FB
 10
0.171311
 20
0.001282
 30
0.0
 11
0.146687
 21
-0.023342
 31
0.0
1001
VD_XPROPERTIES
  0
LINE
  8
ROCK
 62
     1
  5
3FC
 10
0.208996
 20
0.001282
 30
0.0
 11
0.146687
 21
-0.061027
 31
0.0
1001
VD_XPROPERTIES
  0
LINE
  8
ROCK
 62
     1
  5
3FD
 10
0.246737
 20
0.001282
 30
0.0
 11
0.146687
 21
-0.098768
 31
0.0
1001
VD_XPROPERTIES
  0
ENDBLK
  8
0
  5
3FE
  0
BLOCK
  8
0
  5
3FF
  2
BACKWATER
 70
     0
 10
0.0
 20
0.0
 30
0.0
  3
BACKWATER
1001
VD_XPROPERTIES
  0
POLYLINE
  8
BACKWATER
  5
400
 66
     1
 10
0.0
 20
0.0
 30
0.0
1001
VDEXTRAPARAM
1071
        1
1071
        0
1071
        0
1040
0.0
1000
SOLID
1000

1001
VD_XPROPERTIES
  0
VERTEX
  8
BACKWATER
  5
401
 10
0.0
 20
0.0
 30
0.0
  0
VERTEX
  8
BACKWATER
  5
402
 10
0.1
 20
0.026795
 30
0.0
  0
VERTEX
  8
BACKWATER
  5
403
 10
0.1
 20
-0.026795
 30
0.0
  0
VERTEX
  8
BACKWATER
  5
404
 10
0.0
 20
0.0
 30
0.0
  0
SEQEND
  8
0
  5
405
  0
POLYLINE
  8
BACKWATER
  5
407
 66
     1
 10
0.0
 20
0.0
 30
0.0
1001
VDEXTRAPARAM
1071
        1
1071
        0
1071
        0
1040
0.0
1000
SOLID
1000

1001
VD_XPROPERTIES
  0
VERTEX
  8
BACKWATER
  5
408
 10
1.0
 20
0.0
 30
0.0
  0
VERTEX
  8
BACKWATER
  5
409
 10
0.9
 20
0.026795
 30
0.0
  0
VERTEX
  8
BACKWATER
  5
40A
 10
0.9
 20
-0.026795
 30
0.0
  0
VERTEX
  8
BACKWATER
  5
40B
 10
1.0
 20
0.0
 30
0.0
  0
SEQEND
  8
0
  5
40C
  0
POLYLINE
  8
BACKWATER
  5
40E
 66
     1
 10
0.0
 20
0.0
 30
0.0
1001
VDEXTRAPARAM
1071
        0
1071
        0
1071
        0
1040
1.0
1000

1000

1001
VD_XPROPERTIES
  0
VERTEX
  8
BACKWATER
  5
40F
 10
0.0
 20
0.0
 30
0.0
  0
VERTEX
  8
BACKWATER
  5
410
 10
0.1
 20
0.026795
 30
0.0
  0
VERTEX
  8
BACKWATER
  5
411
 10
0.1
 20
-0.026795
 30
0.0
  0
VERTEX
  8
BACKWATER
  5
412
 10
0.0
 20
0.0
 30
0.0
  0
SEQEND
  8
0
  5
413
  0
POLYLINE
  8
BACKWATER
  5
414
 66
     1
 10
0.0
 20
0.0
 30
0.0
1001
VDEXTRAPARAM
1071
        0
1071
        0
1071
        0
1040
1.0
1000

1000

1001
VD_XPROPERTIES
  0
VERTEX
  8
BACKWATER
  5
415
 10
1.0
 20
0.0
 30
0.0
  0
VERTEX
  8
BACKWATER
  5
416
 10
0.9
 20
0.026795
 30
0.0
  0
VERTEX
  8
BACKWATER
  5
417
 10
0.9
 20
-0.026795
 30
0.0
  0
VERTEX
  8
BACKWATER
  5
418
 10
1.0
 20
0.0
 30
0.0
  0
SEQEND
  8
0
  5
419
  0
POLYLINE
  8
BACKWATER
  5
41A
 66
     1
 10
0.0
 20
0.0
 30
0.0
1001
VDEXTRAPARAM
1071
        0
1071
        0
1071
        0
1040
1.0
1000

1000

1001
VD_XPROPERTIES
  0
VERTEX
  8
BACKWATER
  5
41B
 10
0.0
 20
0.0
 30
0.0
  0
VERTEX
  8
BACKWATER
  5
41C
 10
1.0
 20
0.0
 30
0.0
  0
VERTEX
  8
BACKWATER
  5
41D
 10
1.0
 20
0.0
 30
0.0
  0
VERTEX
  8
BACKWATER
  5
41E
 10
1.0
 20
0.0
 30
0.0
  0
SEQEND
  8
0
  5
41F
  0
POLYLINE
  8
BACKWATER
  5
420
 66
     1
 10
0.0
 20
0.0
 30
0.0
1001
VDEXTRAPARAM
1071
        0
1071
        0
1071
        0
1040
1.0
1000

1000

1001
VD_XPROPERTIES
  0
VERTEX
  8
BACKWATER
  5
421
 10
0.0
 20
0.15
 30
0.0
  0
VERTEX
  8
BACKWATER
  5
422
 10
0.0
 20
-0.15
 30
0.0
  0
VERTEX
  8
BACKWATER
  5
423
 10
0.0
 20
-0.15
 30
0.0
  0
VERTEX
  8
BACKWATER
  5
424
 10
0.0
 20
-0.15
 30
0.0
  0
SEQEND
  8
0
  5
425
  0
POLYLINE
  8
BACKWATER
  5
426
 66
     1
 10
0.0
 20
0.0
 30
0.0
1001
VDEXTRAPARAM
1071
        0
1071
        0
1071
        0
1040
1.0
1000

1000

1001
VD_XPROPERTIES
  0
VERTEX
  8
BACKWATER
  5
427
 10
1.0
 20
0.15
 30
0.0
  0
VERTEX
  8
BACKWATER
  5
428
 10
1.0
 20
-0.15
 30
0.0
  0
VERTEX
  8
BACKWATER
  5
429
 10
1.0
 20
-0.15
 30
0.0
  0
VERTEX
  8
BACKWATER
  5
42A
 10
1.0
 20
-0.15
 30
0.0
  0
SEQEND
  8
0
  5
42B
  0
ENDBLK
  8
0
  5
42C
  0
BLOCK
  8
0
  5
42D
  2
LEADER
 70
     0
 10
0.0
 20
0.0
 30
0.0
  3
LEADER
1001
VD_XPROPERTIES
  0
POLYLINE
  8
LEADER
  5
42E
 66
     1
 10
0.0
 20
0.0
 30
0.0
1001
VDEXTRAPARAM
1071
        1
1071
        0
1071
        0
1040
0.0
1000
SOLID
1000

1001
VD_XPROPERTIES
  0
VERTEX
  8
LEADER
  5
42F
 10
0.0
 20
0.0
 30
0.0
  0
VERTEX
  8
LEADER
  5
430
 10
0.05
 20
0.013398
 30
0.0
  0
VERTEX
  8
LEADER
  5
431
 10
0.05
 20
-0.013398
 30
0.0
  0
VERTEX
  8
LEADER
  5
432
 10
0.0
 20
0.0
 30
0.0
  0
SEQEND
  8
0
  5
433
  0
POLYLINE
  8
LEADER
  5
435
 66
     1
 10
0.0
 20
0.0
 30
0.0
1001
VDEXTRAPARAM
1071
        0
1071
        0
1071
        0
1040
1.0
1000

1000

1001
VD_XPROPERTIES
  0
VERTEX
  8
LEADER
  5
436
 10
0.0
 20
0.0
 30
0.0
  0
VERTEX
  8
LEADER
  5
437
 10
0.05
 20
0.013398
 30
0.0
  0
VERTEX
  8
LEADER
  5
438
 10
0.05
 20
-0.013398
 30
0.0
  0
VERTEX
  8
LEADER
  5
439
 10
0.0
 20
0.0
 30
0.0
  0
SEQEND
  8
0
  5
43A
  0
POLYLINE
  8
LEADER
  5
43B
 66
     1
 10
0.0
 20
0.0
 30
0.0
1001
VDEXTRAPARAM
1071
        0
1071
        0
1071
        0
1040
1.0
1000

1000

1001
VD_XPROPERTIES
  0
VERTEX
  8
LEADER
  5
43C
 10
0.0
 20
0.0
 30
0.0
  0
VERTEX
  8
LEADER
  5
43D
 10
1.0
 20
0.0
 30
0.0
  0
VERTEX
  8
LEADER
  5
43E
 10
1.0
 20
0.0
 30
0.0
  0
VERTEX
  8
LEADER
  5
43F
 10
1.0
 20
0.0
 30
0.0
  0
SEQEND
  8
0
  5
440
  0
ENDBLK
  8
0
  5
441
  0
BLOCK
  8
0
  5
442
  2
DAM
 70
     0
 10
0.0
 20
0.0
 30
0.0
  3
DAM
1001
VD_XPROPERTIES
  0
POLYLINE
  8
DAM
 62
     5
  5
443
 66
     1
 10
0.0
 20
0.0
 30
0.0
 40
8.0
 41
8.0
1001
VDEXTRAPARAM
1071
        0
1071
        0
1071
        0
1040
1.0
1000

1000

1001
VD_XPROPERTIES
  0
VERTEX
  8
DAM
 62
     5
  5
444
 10
0.0
 20
0.0
 30
0.0
  0
VERTEX
  8
DAM
 62
     5
  5
445
 10
1.0
 20
1.0
 30
0.0
  0
SEQEND
  8
0
  5
446
  0
ENDBLK
  8
0
  5
447
  0
BLOCK
  8
0
  5
448
  2
CULVERT
 70
     0
 10
0.0
 20
0.0
 30
0.0
  3
CULVERT
1001
VD_XPROPERTIES
  0
POLYLINE
  8
CULVERT
 62
     1
  5
449
 66
     1
 10
0.0
 20
0.0
 30
0.0
 40
2.0
 41
2.0
1001
VDEXTRAPARAM
1071
        0
1071
        0
1071
        0
1040
1.0
1000

1000

1001
VD_XPROPERTIES
  0
VERTEX
  8
CULVERT
 62
     1
  5
44A
 10
0.0
 20
0.0
 30
0.0
  0
VERTEX
  8
CULVERT
 62
     1
  5
44B
 10
1.0
 20
1.0
 30
0.0
  0
SEQEND
  8
0
  5
44C
  0
ENDBLK
  8
0
  5
44D
  0
BLOCK
  8
0
  5
44E
  2
XSEC
 70
     0
 10
0.0
 20
0.0
 30
0.0
  3
XSEC
1001
VD_XPROPERTIES
  0
POLYLINE
  8
XSEC
  5
44F
 66
     1
 10
0.0
 20
0.0
 30
0.0
1001
VDEXTRAPARAM
1071
        0
1071
        0
1071
        0
1040
1.0
1000

1000

1001
VD_XPROPERTIES
  0
VERTEX
  8
XSEC
  5
450
 10
-0.129917
 20
0.074558
 30
0.0
  0
VERTEX
  8
XSEC
  5
451
 10
-0.129917
 20
-0.075442
 30
0.0
  0
VERTEX
  8
XSEC
  5
452
 10
0.0
 20
-0.150442
 30
0.0
  0
VERTEX
  8
XSEC
  5
453
 10
0.129917
 20
-0.075442
 30
0.0
  0
VERTEX
  8
XSEC
  5
454
 10
0.129917
 20
0.074558
 30
0.0
  0
VERTEX
  8
XSEC
  5
455
 10
0.0
 20
0.149558
 30
0.0
  0
VERTEX
  8
XSEC
  5
456
 10
-0.129917
 20
0.074558
 30
0.0
  0
VERTEX
  8
XSEC
  5
457
 10
-0.129917
 20
0.074558
 30
0.0
  0
SEQEND
  8
0
  5
458
  0
LINE
  8
XSEC
  5
459
 10
0.0
 20
0.149558
 30
0.0
 11
0.0
 21
0.207141
 31
0.0
1001
VD_XPROPERTIES
  0
ENDBLK
  8
0
  5
45A
  0
BLOCK
  8
0
  5
45B
  2
V_BASE
 70
     0
 10
0.0
 20
0.0
 30
0.0
  3
V_BASE
1001
VD_XPROPERTIES
  0
LINE
  8
XSEC_LINE
  5
45C
 10
0.0
 20
0.0
 30
0.0
 11
0.0
 21
1.0
 31
0.0
1001
VD_XPROPERTIES
  0
ENDBLK
  8
0
  5
45D
  0
BLOCK
  8
0
  5
45E
  2
ADO102
 70
     0
 10
-2200.0
 20
0.0
 30
0.0
  3
ADO102
1001
VD_XPROPERTIES
  0
ENDBLK
  8
0
  5
45F
  0
ENDSEC
  0
SECTION
  2
ENTITIES
  0
INSERT
  8
GRIDS
  5
460
  2
BORDER
 10
-140.0
 20
100.0
 30
0.0
 41
200.0
 42
200.0
1001
VD_XPROPERTIES
  0
TEXT
  8
TEXT
  5
461
 10
-205.0
 20
91.0
 30
0.0
 40
24.0
  1
 3500
1001
VD_XPROPERTIES
  0
TEXT
  8
TEXT
  5
462
 10
-205.0
 20
291.0
 30
0.0
 40
24.0
  1
 3510
1001
VD_XPROPERTIES
  0
TEXT
  8
TEXT
  5
463
 10
-205.0
 20
491.0
 30
0.0
 40
24.0
  1
 3520
1001
VD_XPROPERTIES
  0
TEXT
  8
TEXT
  5
464
 10
2485.0
 20
491.0
 30
0.0
 40
24.0
  1
 3520
1001
VD_XPROPERTIES
  0
TEXT
  8
TEXT
  5
465
 10
-205.0
 20
691.0
 30
0.0
 40
24.0
  1
 3530
1001
VD_XPROPERTIES
  0
TEXT
  8
TEXT
  5
466
 10
2485.0
 20
691.0
 30
0.0
 40
24.0
  1
 3530
1001
VD_XPROPERTIES
  0
TEXT
  8
TEXT
  5
467
 10
-205.0
 20
891.0
 30
0.0
 40
24.0
  1
 3540
1001
VD_XPROPERTIES
  0
TEXT
  8
TEXT
  5
468
 10
2485.0
 20
891.0
 30
0.0
 40
24.0
  1
 3540
1001
VD_XPROPERTIES
  0
TEXT
  8
TEXT
  5
469
 10
-205.0
 20
1091.0
 30
0.0
 40
24.0
  1
 3550
1001
VD_XPROPERTIES
  0
TEXT
  8
TEXT
  5
46A
 10
2485.0
 20
1091.0
 30
0.0
 40
24.0
  1
 3550
1001
VD_XPROPERTIES
  0
TEXT
  8
TEXT
  5
46B
 10
-205.0
 20
1291.0
 30
0.0
 40
24.0
  1
 3560
1001
VD_XPROPERTIES
  0
TEXT
  8
TEXT
  5
46C
 10
2485.0
 20
1291.0
 30
0.0
 40
24.0
  1
 3560
1001
VD_XPROPERTIES
  0
TEXT
  8
TEXT
  5
46D
 10
-205.0
 20
1491.0
 30
0.0
 40
24.0
  1
 3570
1001
VD_XPROPERTIES
  0
TEXT
  8
TEXT
  5
46E
 10
2485.0
 20
1491.0
 30
0.0
 40
24.0
  1
 3570
1001
VD_XPROPERTIES
  0
TEXT
  8
TEXT
  5
46F
 10
-205.0
 20
1691.0
 30
0.0
 40
24.0
  1
 3580
1001
VD_XPROPERTIES
  0
TEXT
  8
TEXT
  5
470
 10
2485.0
 20
1691.0
 30
0.0
 40
24.0
  1
 3580
1001
VD_XPROPERTIES
  0
TEXT
  8
TEXT
  5
471
 10
-205.0
 20
1891.0
 30
0.0
 40
24.0
  1
 3590
1001
VD_XPROPERTIES
  0
TEXT
  8
TEXT
  5
472
 10
2485.0
 20
1891.0
 30
0.0
 40
24.0
  1
 3590
1001
VD_XPROPERTIES
  0
TEXT
  8
TEXT
  5
473
 10
-136.5
 20
60.0
 30
-0.0
 40
24.0
  1
12800
 72
     1
 11
-136.5
 21
60.0
 31
-0.0
1001
VD_XPROPERTIES
  0
TEXT
  8
TEXT
  5
474
 10
63.5
 20
60.0
 30
-0.0
 40
24.0
  1
13000
 72
     1
 11
63.5
 21
60.0
 31
-0.0
1001
VD_XPROPERTIES
  0
TEXT
  8
TEXT
  5
475
 10
263.5
 20
60.0
 30
-0.0
 40
24.0
  1
13200
 72
     1
 11
263.5
 21
60.0
 31
-0.0
1001
VD_XPROPERTIES
  0
TEXT
  8
TEXT
  5
476
 10
463.5
 20
60.0
 30
-0.0
 40
24.0
  1
13400
 72
     1
 11
463.5
 21
60.0
 31
-0.0
1001
VD_XPROPERTIES
  0
TEXT
  8
TEXT
  5
477
 10
663.5
 20
60.0
 30
-0.0
 40
24.0
  1
13600
 72
     1
 11
663.5
 21
60.0
 31
-0.0
1001
VD_XPROPERTIES
  0
TEXT
  8
TEXT
  5
478
 10
863.5
 20
60.0
 30
-0.0
 40
24.0
  1
13800
 72
     1
 11
863.5
 21
60.0
 31
-0.0
1001
VD_XPROPERTIES
  0
TEXT
  8
TEXT
  5
479
 10
1063.5
 20
60.0
 30
-0.0
 40
24.0
  1
14000
 72
     1
 11
1063.5
 21
60.0
 31
-0.0
1001
VD_XPROPERTIES
  0
TEXT
  8
TEXT
  5
47A
 10
1263.5
 20
60.0
 30
-0.0
 40
24.0
  1
14200
 72
     1
 11
1263.5
 21
60.0
 31
-0.0
1001
VD_XPROPERTIES
  0
TEXT
  8
TEXT
  5
47B
 10
1463.5
 20
60.0
 30
-0.0
 40
24.0
  1
14400
 72
     1
 11
1463.5
 21
60.0
 31
-0.0
1001
VD_XPROPERTIES
  0
TEXT
  8
TEXT
  5
47C
 10
1663.5
 20
60.0
 30
-0.0
 40
24.0
  1
14600
 72
     1
 11
1663.5
 21
60.0
 31
-0.0
1001
VD_XPROPERTIES
  0
TEXT
  8
TEXT
  5
47D
 10
1863.5
 20
60.0
 30
-0.0
 40
24.0
  1
14800
 72
     1
 11
1863.5
 21
60.0
 31
-0.0
1001
VD_XPROPERTIES
  0
TEXT
  8
TEXT
  5
47E
 10
2063.5
 20
60.0
 30
-0.0
 40
24.0
  1
15000
 72
     1
 11
2063.5
 21
60.0
 31
-0.0
1001
VD_XPROPERTIES
  0
TEXT
  8
TEXT
  5
47F
 10
2263.5
 20
60.0
 30
-0.0
 40
24.0
  1
15200
 72
     1
 11
2263.5
 21
60.0
 31
-0.0
1001
VD_XPROPERTIES
  0
TEXT
  8
TEXT
  5
480
 10
2463.5
 20
60.0
 30
-0.0
 40
24.0
  1
15400
 72
     1
 11
2463.5
 21
60.0
 31
-0.0
1001
VD_XPROPERTIES
  0
TEXT
  8
TEXT
  5
481
 10
-252.0
 20
1000.0
 30
-0.0
 40
24.0
  1
ELEVATION IN FEET (NGVD)
 50
90.0
 72
     1
 11
-252.0
 21
1000.0
 31
-0.0
1001
VD_XPROPERTIES
  0
TEXT
  8
TEXT
  5
482
 10
1160.0
 20
-10.0
 30
-0.0
 40
24.0
  1
STREAM DISTANCE IN FEET ABOVE SEWAGE PLANT ROAD CROSSING ADJACENT TO CORPORATE LIMITS
 72
     1
 11
1160.0
 21
-10.0
 31
-0.0
1001
VD_XPROPERTIES
  0
TEXT
  8
TEXT
  5
483
 10
2610.0
 20
405.0
 30
-0.0
 40
32.0
  1
FEDERAL EMERGENCY MANAGEMENT AGENCY
 50
90.0
 72
     1
 11
2610.0
 21
405.0
 31
-0.0
1001
VD_XPROPERTIES
  0
TEXT
  8
TEXT
  5
484
 10
2680.0
 20
405.0
 30
-0.0
 40
40.0
  1
GILA COUNTY, AZ
 50
90.0
 72
     1
 11
2680.0
 21
405.0
 31
-0.0
1001
VD_XPROPERTIES
  0
TEXT
  8
TEXT
  5
485
 10
2730.0
 20
405.0
 30
-0.0
 40
28.0
  1
(UNINCORPORATED AREAS)
 50
90.0
 72
     1
 11
2730.0
 21
405.0
 31
-0.0
1001
VD_XPROPERTIES
  0
TEXT
  8
TEXT
  5
486
 10
2628.0
 20
1365.0
 30
-0.0
 40
40.0
  1
FLOOD PROFILES
 50
90.0
 72
     1
 11
2628.0
 21
1365.0
 31
-0.0
1001
VD_XPROPERTIES
  0
TEXT
  8
TEXT
  5
487
 10
2720.0
 20
1365.0
 30
-0.0
 40
32.0
  1
PINAL CREEK (AT GLOBE)
 50
90.0
 72
     1
 11
2720.0
 21
1365.0
 31
-0.0
1001
VD_XPROPERTIES
  0
TEXT
  8
TEXT
  5
488
 10
2660.0
 20
-30.0
 30
-0.0
 40
40.0
  1
36P
 72
     1
 11
2660.0
 21
-30.0
 31
-0.0
1001
VD_XPROPERTIES
  0
POLYLINE
  8
WS100
 62
     1
  5
489
 66
     1
 10
0.0
 20
0.0
 30
0.0
1001
VDEXTRAPARAM
1071
        0
1071
        0
1071
        0
1040
1.0
1000

1000

1001
VD_XPROPERTIES
  0
VERTEX
  8
WS100
 62
     1
  5
48A
 10
0.0
 20
867.998
 30
0.0
  0
VERTEX
  8
WS100
 62
     1
  5
48B
 10
473.9004
 20
940.2002
 30
0.0
  0
VERTEX
  8
WS100
 62
     1
  5
48C
 10
473.9004
 20
940.2002
 30
0.0
  0
VERTEX
  8
WS100
 62
     1
  5
48D
 10
967.3008
 20
1020.2
 30
0.0
  0
VERTEX
  8
WS100
 62
     1
  5
48E
 10
967.3008
 20
1020.2
 30
0.0
  0
VERTEX
  8
WS100
 62
     1
  5
48F
 10
1467.101
 20
1072.402
 30
0.0
  0
VERTEX
  8
WS100
 62
     1
  5
490
 10
1467.101
 20
1072.402
 30
0.0
  0
VERTEX
  8
WS100
 62
     1
  5
491
 10
1977.7
 20
1217.598
 30
0.0
  0
VERTEX
  8
WS100
 62
     1
  5
492
 10
2460.0
 20
1317.173
 30
0.0
  0
VERTEX
  8
WS100
 62
     1
  5
493
 10
2460.0
 20
1317.173
 30
0.0
  0
VERTEX
  8
WS100
 62
     1
  5
494
 10
2460.0
 20
1317.173
 30
0.0
  0
SEQEND
  8
0
  5
495
  0
INSERT
  8
ROCK
 62
     1
  5
496
  2
ROCK
 10
0.0
 20
659.7998
 30
0.0
 41
200.0
 42
200.0
 50
2.94735
1001
VD_XPROPERTIES
  0
INSERT
  8
ROCK
 62
     1
  5
497
  2
ROCK
 10
473.9004
 20
684.1992
 30
0.0
 41
200.0
 42
200.0
 50
5.303386
1001
VD_XPROPERTIES
  0
INSERT
  8
ROCK
 62
     1
  5
498
  2
ROCK
 10
967.3008
 20
730.0
 30
0.0
 41
200.0
 42
200.0
 50
12.67464
1001
VD_XPROPERTIES
  0
POLYLINE
  8
STREAM
 62
     1
  5
499
 66
     1
 10
0.0
 20
0.0
 30
0.0
1001
VDEXTRAPARAM
1071
        0
1071
        0
1071
        0
1040
1.0
1000

1000

1001
VD_XPROPERTIES
  0
VERTEX
  8
STREAM
 62
     1
  5
49A
 10
0.0
 20
659.7998
 30
0.0
  0
VERTEX
  8
STREAM
 62
     1
  5
49B
 10
473.9004
 20
684.1992
 30
0.0
  0
VERTEX
  8
STREAM
 62
     1
  5
49C
 10
473.9004
 20
684.1992
 30
0.0
  0
VERTEX
  8
STREAM
 62
     1
  5
49D
 10
967.3008
 20
730.0
 30
0.0
  0
VERTEX
  8
STREAM
 62
     1
  5
49E
 10
967.3008
 20
730.0
 30
0.0
  0
VERTEX
  8
STREAM
 62
     1
  5
49F
 10
1467.101
 20
842.4023
 30
0.0
  0
VERTEX
  8
STREAM
 62
     1
  5
4A0
 10
1467.101
 20
842.4023
 30
0.0
  0
VERTEX
  8
STREAM
 62
     1
  5
4A1
 10
1977.7
 20
972.998
 30
0.0
  0
VERTEX
  8
STREAM
 62
     1
  5
4A2
 10
2460.0
 20
1081.646
 30
0.0
  0
VERTEX
  8
STREAM
 62
     1
  5
4A3
 10
2460.0
 20
1081.646
 30
0.0
  0
SEQEND
  8
0
  5
4A4
  0
INSERT
  8
XSEC
 62
     3
  5
4A5
  2
XSEC
 10
0.0
 20
170.0
 30
0.0
 41
200.0
 42
200.0
1001
VD_XPROPERTIES
  0
TEXT
  8
TEXT
  5
4A6
 10
0.001
 20
170.0
 30
-0.0
 40
20.0
  1
AF
 72
     1
 11
0.001
 21
170.0
 31
-0.0
 73
     2
1001
VD_XPROPERTIES
  0
INSERT
  8
XSEC
 62
     3
  5
4A7
  2
XSEC
 10
1467.101
 20
170.0
 30
0.0
 41
200.0
 42
200.0
1001
VD_XPROPERTIES
  0
TEXT
  8
TEXT
  5
4A8
 10
1467.101
 20
170.0
 30
-0.0
 40
20.0
  1
AG
 72
     1
 11
1467.101
 21
170.0
 31
-0.0
 73
     2
1001
VD_XPROPERTIES
  0
POLYLINE
  8
XSECTEXTLINE
  5
4A9
 66
     1
 10
0.0
 20
0.0
 30
0.0
1001
VDEXTRAPARAM
1071
        0
1071
        0
1071
        0
1040
1.0
1000

1000

1001
VD_XPROPERTIES
  0
VERTEX
  8
XSECTEXTLINE
  5
4AA
 10
1977.7
 20
1500.0
 30
0.0
  0
VERTEX
  8
XSECTEXTLINE
  5
4AB
 10
1977.7
 20
1700.0
 30
0.0
  0
VERTEX
  8
XSECTEXTLINE
  5
4AC
 10
1977.7
 20
1700.0
 30
0.0
  0
SEQEND
  8
0
  5
4AD
  0
TEXT
  8
TEXT
  5
4AE
 10
1967.7
 20
1600.0
 30
-0.0
 40
24.0
  1
MATLOCK AVENUE
 50
90.0
 72
     1
 11
1967.7
 21
1600.0
 31
-0.0
1001
VD_XPROPERTIES
  0
POLYLINE
  8
LANDMARKLINE
  5
4AF
 66
     1
 10
0.0
 20
0.0
 30
0.0
1001
VDEXTRAPARAM
1071
        0
1071
        0
1071
        0
1040
1.0
1000

1000

1001
VD_XPROPERTIES
  0
VERTEX
  8
LANDMARKLINE
  5
4B0
 10
1055.0
 20
1500.0
 30
0.0
  0
VERTEX
  8
LANDMARKLINE
  5
4B1
 10
1055.0
 20
1700.0
 30
0.0
  0
VERTEX
  8
LANDMARKLINE
  5
4B2
 10
1055.0
 20
1700.0
 30
0.0
  0
SEQEND
  8
0
  5
4B3
  0
TEXT
  8
TEXT
  5
4B4
 10
1045.0
 20
1600.0
 30
-0.0
 40
24.0
  1
CITY OF GLOBE
 50
90.0
 72
     1
 11
1045.0
 21
1600.0
 31
-0.0
1001
VD_XPROPERTIES
  0
TEXT
  8
TEXT
  5
4B5
 10
1085.0
 20
1600.0
 30
-0.0
 40
24.0
  1
GILA COUNTY
 50
90.0
 72
     1
 11
1085.0
 21
1600.0
 31
-0.0
1001
VD_XPROPERTIES
  0
POLYLINE
  8
LEGEND_BOX
  5
4B6
 66
     1
 10
0.0
 20
0.0
 30
0.0
1001
VDEXTRAPARAM
1071
        0
1071
        0
1071
        0
1040
1.0
1000

1000

1001
VD_XPROPERTIES
  0
VERTEX
  8
LEGEND_BOX
  5
4B7
 10
1870.0
 20
490.0
 30
0.0
  0
VERTEX
  8
LEGEND_BOX
  5
4B8
 10
1870.0
 20
110.0
 30
0.0
  0
VERTEX
  8
LEGEND_BOX
  5
4B9
 10
2450.0
 20
110.0
 30
0.0
  0
VERTEX
  8
LEGEND_BOX
  5
4BA
 10
2450.0
 20
490.0
 30
0.0
  0
VERTEX
  8
LEGEND_BOX
  5
4BB
 10
1870.0
 20
490.0
 30
0.0
  0
VERTEX
  8
LEGEND_BOX
  5
4BC
 10
1870.0
 20
490.0
 30
0.0
  0
SEQEND
  8
0
  5
4BD
  0
TEXT
  8
TEXT
  5
4BE
 10
2170.0
 20
450.0
 30
-0.0
 40
20.0
  1
LEGEND
 72
     1
 11
2170.0
 21
450.0
 31
-0.0
1001
VD_XPROPERTIES
  0
POLYLINE
  8
WS500
 62
     3
  5
4BF
 66
     1
 10
0.0
 20
0.0
 30
0.0
1001
VDEXTRAPARAM
1071
        0
1071
        0
1071
        0
1040
1.0
1000

1000

1001
VD_XPROPERTIES
  0
VERTEX
  8
WS500
 62
     3
  5
4C0
 10
1920.0
 20
420.0
 30
0.0
  0
VERTEX
  8
WS500
 62
     3
  5
4C1
 10
2140.0
 20
420.0
 30
0.0
  0
VERTEX
  8
WS500
 62
     3
  5
4C2
 10
2140.0
 20
420.0
 30
0.0
  0
SEQEND
  8
0
  5
4C3
  0
TEXT
  8
TEXT
  5
4C4
 10
2190.0
 20
410.0
 30
0.0
 40
20.0
  1
500-YEAR FLOOD
1001
VD_XPROPERTIES
  0
POLYLINE
  8
WS100
 62
     1
  5
4C5
 66
     1
 10
0.0
 20
0.0
 30
0.0
1001
VDEXTRAPARAM
1071
        0
1071
        0
1071
        0
1040
1.0
1000

1000

1001
VD_XPROPERTIES
  0
VERTEX
  8
WS100
 62
     1
  5
4C6
 10
1920.0
 20
370.0
 30
0.0
  0
VERTEX
  8
WS100
 62
     1
  5
4C7
 10
2140.0
 20
370.0
 30
0.0
  0
VERTEX
  8
WS100
 62
     1
  5
4C8
 10
2140.0
 20
370.0
 30
0.0
  0
SEQEND
  8
0
  5
4C9
  0
TEXT
  8
TEXT
  5
4CA
 10
2190.0
 20
360.0
 30
0.0
 40
20.0
  1
100-YEAR FLOOD
1001
VD_XPROPERTIES
  0
POLYLINE
  8
WS50
 62
     5
  5
4CB
 66
     1
 10
0.0
 20
0.0
 30
0.0
1001
VDEXTRAPARAM
1071
        0
1071
        0
1071
        0
1040
1.0
1000

1000

1001
VD_XPROPERTIES
  0
VERTEX
  8
WS50
 62
     5
  5
4CC
 10
1920.0
 20
320.0
 30
0.0
  0
VERTEX
  8
WS50
 62
     5
  5
4CD
 10
2140.0
 20
320.0
 30
0.0
  0
VERTEX
  8
WS50
 62
     5
  5
4CE
 10
2140.0
 20
320.0
 30
0.0
  0
SEQEND
  8
0
  5
4CF
  0
TEXT
  8
TEXT
  5
4D0
 10
2190.0
 20
310.0
 30
0.0
 40
20.0
  1
50-YEAR FLOOD
1001
VD_XPROPERTIES
  0
POLYLINE
  8
WS10
 62
     6
  5
4D1
 66
     1
 10
0.0
 20
0.0
 30
0.0
1001
VDEXTRAPARAM
1071
        0
1071
        0
1071
        0
1040
1.0
1000

1000

1001
VD_XPROPERTIES
  0
VERTEX
  8
WS10
 62
     6
  5
4D2
 10
1920.0
 20
270.0
 30
0.0
  0
VERTEX
  8
WS10
 62
     6
  5
4D3
 10
2140.0
 20
270.0
 30
0.0
  0
VERTEX
  8
WS10
 62
     6
  5
4D4
 10
2140.0
 20
270.0
 30
0.0
  0
SEQEND
  8
0
  5
4D5
  0
TEXT
  8
TEXT
  5
4D6
 10
2190.0
 20
260.0
 30
0.0
 40
20.0
  1
10-YEAR FLOOD
1001
VD_XPROPERTIES
  0
POLYLINE
  8
STREAM
 62
     1
  5
4D7
 66
     1
 10
0.0
 20
0.0
 30
0.0
1001
VDEXTRAPARAM
1071
        0
1071
        0
1071
        0
1040
1.0
1000

1000

1001
VD_XPROPERTIES
  0
VERTEX
  8
STREAM
 62
     1
  5
4D8
 10
1920.0
 20
230.0
 30
0.0
  0
VERTEX
  8
STREAM
 62
     1
  5
4D9
 10
2140.0
 20
230.0
 30
0.0
  0
VERTEX
  8
STREAM
 62
     1
  5
4DA
 10
2140.0
 20
230.0
 30
0.0
  0
SEQEND
  8
0
  5
4DB
  0
TEXT
  8
TEXT
  5
4DC
 10
2190.0
 20
210.0
 30
0.0
 40
20.0
  1
STREAM BED
1001
VD_XPROPERTIES
  0
INSERT
  8
ROCK
 62
     1
  5
4DD
  2
ROCK
 10
1920.0
 20
229.7998
 30
0.0
 41
200.0
 42
200.0
1001
VD_XPROPERTIES
  0
TEXT
  8
TEXT
  5
4DE
 10
2190.0
 20
160.0
 30
0.0
 40
20.0
  1
CROSS SECTION
1001
VD_XPROPERTIES
  0
TEXT
  8
TEXT
  5
4DF
 10
2192.0
 20
136.665
 30
0.0
 40
20.0
  1
LOCATION
1001
VD_XPROPERTIES
  0
POLYLINE
  8
LEGEND_XSEC
  5
4E0
 66
     1
 10
0.0
 20
0.0
 30
0.0
1001
VDEXTRAPARAM
1071
        0
1071
        0
1071
        0
1040
1.0
1000

1000

1001
VD_XPROPERTIES
  0
VERTEX
  8
LEGEND_XSEC
  5
4E1
 10
2030.0
 20
180.0
 30
0.0
  0
VERTEX
  8
LEGEND_XSEC
  5
4E2
 10
2004.019
 20
165.0
 30
0.0
  0
VERTEX
  8
LEGEND_XSEC
  5
4E3
 10
2004.019
 20
135.0
 30
0.0
  0
VERTEX
  8
LEGEND_XSEC
  5
4E4
 10
2030.0
 20
120.0
 30
0.0
  0
VERTEX
  8
LEGEND_XSEC
  5
4E5
 10
2055.981
 20
135.0
 30
0.0
  0
VERTEX
  8
LEGEND_XSEC
  5
4E6
 10
2055.981
 20
165.0
 30
0.0
  0
VERTEX
  8
LEGEND_XSEC
  5
4E7
 10
2030.0
 20
180.0
 30
0.0
  0
VERTEX
  8
LEGEND_XSEC
  5
4E8
 10
2030.0
 20
190.0
 30
0.0
  0
VERTEX
  8
LEGEND_XSEC
  5
4E9
 10
2030.0
 20
190.0
 30
0.0
  0
SEQEND
  8
0
  5
4EA
  0
INSERT
  8
GRIDS
  5
4EB
  2
BORDER
 10
4000.0
 20
100.0
 30
0.0
 41
200.0
 42
200.0
1001
VD_XPROPERTIES
  0
TEXT
  8
TEXT
  5
4EC
 10
3935.0
 20
91.0
 30
0.0
 40
24.0
  1
 3530
1001
VD_XPROPERTIES
  0
TEXT
  8
TEXT
  5
4ED
 10
3935.0
 20
291.0
 30
0.0
 40
24.0
  1
 3540
1001
VD_XPROPERTIES
  0
TEXT
  8
TEXT
  5
4EE
 10
3935.0
 20
491.0
 30
0.0
 40
24.0
  1
 3550
1001
VD_XPROPERTIES
  0
TEXT
  8
TEXT
  5
4EF
 10
6625.0
 20
491.0
 30
0.0
 40
24.0
  1
 3550
1001
VD_XPROPERTIES
  0
TEXT
  8
TEXT
  5
4F0
 10
3935.0
 20
691.0
 30
0.0
 40
24.0
  1
 3560
1001
VD_XPROPERTIES
  0
TEXT
  8
TEXT
  5
4F1
 10
6625.0
 20
691.0
 30
0.0
 40
24.0
  1
 3560
1001
VD_XPROPERTIES
  0
TEXT
  8
TEXT
  5
4F2
 10
3935.0
 20
891.0
 30
0.0
 40
24.0
  1
 3570
1001
VD_XPROPERTIES
  0
TEXT
  8
TEXT
  5
4F3
 10
6625.0
 20
891.0
 30
0.0
 40
24.0
  1
 3570
1001
VD_XPROPERTIES
  0
TEXT
  8
TEXT
  5
4F4
 10
3935.0
 20
1091.0
 30
0.0
 40
24.0
  1
 3580
1001
VD_XPROPERTIES
  0
TEXT
  8
TEXT
  5
4F5
 10
6625.0
 20
1091.0
 30
0.0
 40
24.0
  1
 3580
1001
VD_XPROPERTIES
  0
TEXT
  8
TEXT
  5
4F6
 10
3935.0
 20
1291.0
 30
0.0
 40
24.0
  1
 3590
1001
VD_XPROPERTIES
  0
TEXT
  8
TEXT
  5
4F7
 10
6625.0
 20
1291.0
 30
0.0
 40
24.0
  1
 3590
1001
VD_XPROPERTIES
  0
TEXT
  8
TEXT
  5
4F8
 10
3935.0
 20
1491.0
 30
0.0
 40
24.0
  1
 3600
1001
VD_XPROPERTIES
  0
TEXT
  8
TEXT
  5
4F9
 10
6625.0
 20
1491.0
 30
0.0
 40
24.0
  1
 3600
1001
VD_XPROPERTIES
  0
TEXT
  8
TEXT
  5
4FA
 10
3935.0
 20
1691.0
 30
0.0
 40
24.0
  1
 3610
1001
VD_XPROPERTIES
  0
TEXT
  8
TEXT
  5
4FB
 10
6625.0
 20
1691.0
 30
0.0
 40
24.0
  1
 3610
1001
VD_XPROPERTIES
  0
TEXT
  8
TEXT
  5
4FC
 10
3935.0
 20
1891.0
 30
0.0
 40
24.0
  1
 3620
1001
VD_XPROPERTIES
  0
TEXT
  8
TEXT
  5
4FD
 10
6625.0
 20
1891.0
 30
0.0
 40
24.0
  1
 3620
1001
VD_XPROPERTIES
  0
TEXT
  8
TEXT
  5
4FE
 10
4003.5
 20
60.0
 30
-0.0
 40
24.0
  1
15400
 72
     1
 11
4003.5
 21
60.0
 31
-0.0
1001
VD_XPROPERTIES
  0
TEXT
  8
TEXT
  5
4FF
 10
4203.5
 20
60.0
 30
-0.0
 40
24.0
  1
15600
 72
     1
 11
4203.5
 21
60.0
 31
-0.0
1001
VD_XPROPERTIES
  0
TEXT
  8
TEXT
  5
500
 10
4403.5
 20
60.0
 30
-0.0
 40
24.0
  1
15800
 72
     1
 11
4403.5
 21
60.0
 31
-0.0
1001
VD_XPROPERTIES
  0
TEXT
  8
TEXT
  5
501
 10
4603.5
 20
60.0
 30
-0.0
 40
24.0
  1
16000
 72
     1
 11
4603.5
 21
60.0
 31
-0.0
1001
VD_XPROPERTIES
  0
TEXT
  8
TEXT
  5
502
 10
4803.5
 20
60.0
 30
-0.0
 40
24.0
  1
16200
 72
     1
 11
4803.5
 21
60.0
 31
-0.0
1001
VD_XPROPERTIES
  0
TEXT
  8
TEXT
  5
503
 10
5003.5
 20
60.0
 30
-0.0
 40
24.0
  1
16400
 72
     1
 11
5003.5
 21
60.0
 31
-0.0
1001
VD_XPROPERTIES
  0
TEXT
  8
TEXT
  5
504
 10
5203.5
 20
60.0
 30
-0.0
 40
24.0
  1
16600
 72
     1
 11
5203.5
 21
60.0
 31
-0.0
1001
VD_XPROPERTIES
  0
TEXT
  8
TEXT
  5
505
 10
5403.5
 20
60.0
 30
-0.0
 40
24.0
  1
16800
 72
     1
 11
5403.5
 21
60.0
 31
-0.0
1001
VD_XPROPERTIES
  0
TEXT
  8
TEXT
  5
506
 10
5603.5
 20
60.0
 30
-0.0
 40
24.0
  1
17000
 72
     1
 11
5603.5
 21
60.0
 31
-0.0
1001
VD_XPROPERTIES
  0
TEXT
  8
TEXT
  5
507
 10
5803.5
 20
60.0
 30
-0.0
 40
24.0
  1
17200
 72
     1
 11
5803.5
 21
60.0
 31
-0.0
1001
VD_XPROPERTIES
  0
TEXT
  8
TEXT
  5
508
 10
6003.5
 20
60.0
 30
-0.0
 40
24.0
  1
17400
 72
     1
 11
6003.5
 21
60.0
 31
-0.0
1001
VD_XPROPERTIES
  0
TEXT
  8
TEXT
  5
509
 10
6203.5
 20
60.0
 30
-0.0
 40
24.0
  1
17600
 72
     1
 11
6203.5
 21
60.0
 31
-0.0
1001
VD_XPROPERTIES
  0
TEXT
  8
TEXT
  5
50A
 10
6403.5
 20
60.0
 30
-0.0
 40
24.0
  1
17800
 72
     1
 11
6403.5
 21
60.0
 31
-0.0
1001
VD_XPROPERTIES
  0
TEXT
  8
TEXT
  5
50B
 10
6603.5
 20
60.0
 30
-0.0
 40
24.0
  1
18000
 72
     1
 11
6603.5
 21
60.0
 31
-0.0
1001
VD_XPROPERTIES
  0
TEXT
  8
TEXT
  5
50C
 10
3888.0
 20
1000.0
 30
-0.0
 40
24.0
  1
ELEVATION IN FEET (NGVD)
 50
90.0
 72
     1
 11
3888.0
 21
1000.0
 31
-0.0
1001
VD_XPROPERTIES
  0
TEXT
  8
TEXT
  5
50D
 10
5300.0
 20
-10.0
 30
-0.0
 40
24.0
  1
STREAM DISTANCE IN FEET ABOVE SEWAGE PLANT ROAD CROSSING ADJACENT TO CORPORATE LIMITS
 72
     1
 11
5300.0
 21
-10.0
 31
-0.0
1001
VD_XPROPERTIES
  0
TEXT
  8
TEXT
  5
50E
 10
6750.0
 20
405.0
 30
-0.0
 40
32.0
  1
FEDERAL EMERGENCY MANAGEMENT AGENCY
 50
90.0
 72
     1
 11
6750.0
 21
405.0
 31
-0.0
1001
VD_XPROPERTIES
  0
TEXT
  8
TEXT
  5
50F
 10
6820.0
 20
405.0
 30
-0.0
 40
40.0
  1
GILA COUNTY, AZ
 50
90.0
 72
     1
 11
6820.0
 21
405.0
 31
-0.0
1001
VD_XPROPERTIES
  0
TEXT
  8
TEXT
  5
510
 10
6870.0
 20
405.0
 30
-0.0
 40
28.0
  1
(UNINCORPORATED AREAS)
 50
90.0
 72
     1
 11
6870.0
 21
405.0
 31
-0.0
1001
VD_XPROPERTIES
  0
TEXT
  8
TEXT
  5
511
 10
6768.0
 20
1365.0
 30
-0.0
 40
40.0
  1
FLOOD PROFILES
 50
90.0
 72
     1
 11
6768.0
 21
1365.0
 31
-0.0
1001
VD_XPROPERTIES
  0
TEXT
  8
TEXT
  5
512
 10
6860.0
 20
1365.0
 30
-0.0
 40
32.0
  1
PINAL CREEK (AT GLOBE)
 50
90.0
 72
     1
 11
6860.0
 21
1365.0
 31
-0.0
1001
VD_XPROPERTIES
  0
TEXT
  8
TEXT
  5
513
 10
6800.0
 20
-30.0
 30
-0.0
 40
40.0
  1
37P
 72
     1
 11
6800.0
 21
-30.0
 31
-0.0
1001
VD_XPROPERTIES
  0
POLYLINE
  8
WS100
 62
     1
  5
514
 66
     1
 10
0.0
 20
0.0
 30
0.0
1001
VDEXTRAPARAM
1071
        0
1071
        0
1071
        0
1040
1.0
1000

1000

1001
VD_XPROPERTIES
  0
VERTEX
  8
WS100
 62
     1
  5
515
 10
4000.0
 20
717.1729
 30
0.0
  0
VERTEX
  8
WS100
 62
     1
  5
516
 10
4006.9
 20
718.5986
 30
0.0
  0
VERTEX
  8
WS100
 62
     1
  5
517
 10
4006.9
 20
718.5986
 30
0.0
  0
VERTEX
  8
WS100
 62
     1
  5
518
 10
4510.101
 20
817.998
 30
0.0
  0
VERTEX
  8
WS100
 62
     1
  5
519
 10
4510.101
 20
817.998
 30
0.0
  0
VERTEX
  8
WS100
 62
     1
  5
51A
 10
5006.4
 20
893.7988
 30
0.0
  0
VERTEX
  8
WS100
 62
     1
  5
51B
 10
5006.4
 20
893.7988
 30
0.0
  0
VERTEX
  8
WS100
 62
     1
  5
51C
 10
5539.6
 20
1008.198
 30
0.0
  0
VERTEX
  8
WS100
 62
     1
  5
51D
 10
5539.6
 20
1008.198
 30
0.0
  0
VERTEX
  8
WS100
 62
     1
  5
51E
 10
5628.699
 20
1042.598
 30
0.0
  0
VERTEX
  8
WS100
 62
     1
  5
51F
 10
5628.699
 20
1042.598
 30
0.0
  0
VERTEX
  8
WS100
 62
     1
  5
520
 10
6157.6
 20
1188.198
 30
0.0
  0
VERTEX
  8
WS100
 62
     1
  5
521
 10
6157.6
 20
1188.198
 30
0.0
  0
VERTEX
  8
WS100
 62
     1
  5
522
 10
6486.1
 20
1256.001
 30
0.0
  0
VERTEX
  8
WS100
 62
     1
  5
523
 10
6600.0
 20
1270.049
 30
0.0
  0
VERTEX
  8
WS100
 62
     1
  5
524
 10
6600.0
 20
1270.049
 30
0.0
  0
VERTEX
  8
WS100
 62
     1
  5
525
 10
6600.0
 20
1270.049
 30
0.0
  0
SEQEND
  8
0
  5
526
  0
INSERT
  8
ROCK
 62
     1
  5
527
  2
ROCK
 10
4006.9
 20
483.1982
 30
0.0
 41
200.0
 42
200.0
 50
8.210071
1001
VD_XPROPERTIES
  0
INSERT
  8
ROCK
 62
     1
  5
528
  2
ROCK
 10
4510.101
 20
555.8008
 30
0.0
 41
200.0
 42
200.0
 50
9.426467
1001
VD_XPROPERTIES
  0
INSERT
  8
ROCK
 62
     1
  5
529
  2
ROCK
 10
5006.4
 20
638.1982
 30
0.0
 41
200.0
 42
200.0
 50
8.301828
1001
VD_XPROPERTIES
  0
POLYLINE
  8
STREAM
 62
     1
  5
52A
 66
     1
 10
0.0
 20
0.0
 30
0.0
1001
VDEXTRAPARAM
1071
        0
1071
        0
1071
        0
1040
1.0
1000

1000

1001
VD_XPROPERTIES
  0
VERTEX
  8
STREAM
 62
     1
  5
52B
 10
4000.0
 20
481.6455
 30
0.0
  0
VERTEX
  8
STREAM
 62
     1
  5
52C
 10
4006.9
 20
483.1982
 30
0.0
  0
VERTEX
  8
STREAM
 62
     1
  5
52D
 10
4006.9
 20
483.1982
 30
0.0
  0
VERTEX
  8
STREAM
 62
     1
  5
52E
 10
4510.101
 20
555.8008
 30
0.0
  0
VERTEX
  8
STREAM
 62
     1
  5
52F
 10
4510.101
 20
555.8008
 30
0.0
  0
VERTEX
  8
STREAM
 62
     1
  5
530
 10
5006.4
 20
638.1982
 30
0.0
  0
VERTEX
  8
STREAM
 62
     1
  5
531
 10
5006.4
 20
638.1982
 30
0.0
  0
VERTEX
  8
STREAM
 62
     1
  5
532
 10
5539.6
 20
716.001
 30
0.0
  0
VERTEX
  8
STREAM
 62
     1
  5
533
 10
5539.6
 20
716.001
 30
0.0
  0
VERTEX
  8
STREAM
 62
     1
  5
534
 10
5628.699
 20
786.8018
 30
0.0
  0
VERTEX
  8
STREAM
 62
     1
  5
535
 10
5628.699
 20
786.8018
 30
0.0
  0
VERTEX
  8
STREAM
 62
     1
  5
536
 10
6157.6
 20
970.4004
 30
0.0
  0
VERTEX
  8
STREAM
 62
     1
  5
537
 10
6157.6
 20
970.4004
 30
0.0
  0
VERTEX
  8
STREAM
 62
     1
  5
538
 10
6486.1
 20
1053.999
 30
0.0
  0
VERTEX
  8
STREAM
 62
     1
  5
539
 10
6600.0
 20
1085.913
 30
0.0
  0
VERTEX
  8
STREAM
 62
     1
  5
53A
 10
6600.0
 20
1085.913
 30
0.0
  0
SEQEND
  8
0
  5
53B
  0
INSERT
  8
XSEC
 62
     3
  5
53C
  2
XSEC
 10
4510.101
 20
170.0
 30
0.0
 41
200.0
 42
200.0
1001
VD_XPROPERTIES
  0
TEXT
  8
TEXT
  5
53D
 10
4510.101
 20
170.0
 30
-0.0
 40
20.0
  1
AH
 72
     1
 11
4510.101
 21
170.0
 31
-0.0
 73
     2
1001
VD_XPROPERTIES
  0
INSERT
  8
XSEC
 62
     3
  5
53E
  2
XSEC
 10
5539.6
 20
170.0
 30
0.0
 41
200.0
 42
200.0
1001
VD_XPROPERTIES
  0
TEXT
  8
TEXT
  5
53F
 10
5539.6
 20
170.0
 30
-0.0
 40
20.0
  1
AI
 72
     1
 11
5539.6
 21
170.0
 31
-0.0
 73
     2
1001
VD_XPROPERTIES
  0
INSERT
  8
XSEC
 62
     3
  5
540
  2
XSEC
 10
6486.1
 20
570.0
 30
0.0
 41
200.0
 42
200.0
1001
VD_XPROPERTIES
  0
TEXT
  8
TEXT
  5
541
 10
6486.1
 20
570.0
 30
-0.0
 40
20.0
  1
AJ
 72
     1
 11
6486.1
 21
570.0
 31
-0.0
 73
     2
1001
VD_XPROPERTIES
  0
POLYLINE
  8
LANDMARKLINE
  5
542
 66
     1
 10
0.0
 20
0.0
 30
0.0
1001
VDEXTRAPARAM
1071
        0
1071
        0
1071
        0
1040
1.0
1000

1000

1001
VD_XPROPERTIES
  0
VERTEX
  8
LANDMARKLINE
  5
543
 10
5670.0
 20
1500.0
 30
0.0
  0
VERTEX
  8
LANDMARKLINE
  5
544
 10
5670.0
 20
1700.0
 30
0.0
  0
VERTEX
  8
LANDMARKLINE
  5
545
 10
5670.0
 20
1700.0
 30
0.0
  0
SEQEND
  8
0
  5
546
  0
TEXT
  8
TEXT
  5
547
 10
5660.0
 20
1600.0
 30
-0.0
 40
24.0
  1
BEER TREE CROSSING
 50
90.0
 72
     1
 11
5660.0
 21
1600.0
 31
-0.0
1001
VD_XPROPERTIES
  0
POLYLINE
  8
LANDMARKLINE
  5
548
 66
     1
 10
0.0
 20
0.0
 30
0.0
1001
VDEXTRAPARAM
1071
        0
1071
        0
1071
        0
1040
1.0
1000

1000

1001
VD_XPROPERTIES
  0
VERTEX
  8
LANDMARKLINE
  5
549
 10
5745.0
 20
1500.0
 30
0.0
  0
VERTEX
  8
LANDMARKLINE
  5
54A
 10
5745.0
 20
1700.0
 30
0.0
  0
VERTEX
  8
LANDMARKLINE
  5
54B
 10
5745.0
 20
1700.0
 30
0.0
  0
SEQEND
  8
0
  5
54C
  0
TEXT
  8
TEXT
  5
54D
 10
5735.0
 20
1600.0
 30
-0.0
 40
24.0
  1
GILA COUNTY
 50
90.0
 72
     1
 11
5735.0
 21
1600.0
 31
-0.0
1001
VD_XPROPERTIES
  0
TEXT
  8
TEXT
  5
54E
 10
5775.0
 20
1600.0
 30
-0.0
 40
24.0
  1
CITY OF GLOBE
 50
90.0
 72
     1
 11
5775.0
 21
1600.0
 31
-0.0
1001
VD_XPROPERTIES
  0
POLYLINE
  8
LANDMARKLINE
  5
54F
 66
     1
 10
0.0
 20
0.0
 30
0.0
1001
VDEXTRAPARAM
1071
        0
1071
        0
1071
        0
1040
1.0
1000

1000

1001
VD_XPROPERTIES
  0
VERTEX
  8
LANDMARKLINE
  5
550
 10
5760.0
 20
1300.0
 30
0.0
  0
VERTEX
  8
LANDMARKLINE
  5
551
 10
5760.0
 20
1500.0
 30
0.0
  0
VERTEX
  8
LANDMARKLINE
  5
552
 10
5760.0
 20
1500.0
 30
0.0
  0
SEQEND
  8
0
  5
553
  0
TEXT
  8
TEXT
  5
554
 10
5750.0
 20
1400.0
 30
-0.0
 40
24.0
  1
CONFLUENCE OF
 50
90.0
 72
     1
 11
5750.0
 21
1400.0
 31
-0.0
1001
VD_XPROPERTIES
  0
TEXT
  8
TEXT
  5
555
 10
5790.0
 20
1400.0
 30
-0.0
 40
24.0
  1
ICE HOUSE CANYON
 50
90.0
 72
     1
 11
5790.0
 21
1400.0
 31
-0.0
1001
VD_XPROPERTIES
  0
POLYLINE
  8
LEGEND_BOX
  5
556
 66
     1
 10
0.0
 20
0.0
 30
0.0
1001
VDEXTRAPARAM
1071
        0
1071
        0
1071
        0
1040
1.0
1000

1000

1001
VD_XPROPERTIES
  0
VERTEX
  8
LEGEND_BOX
  5
557
 10
6010.0
 20
490.0
 30
0.0
  0
VERTEX
  8
LEGEND_BOX
  5
558
 10
6010.0
 20
110.0
 30
0.0
  0
VERTEX
  8
LEGEND_BOX
  5
559
 10
6590.0
 20
110.0
 30
0.0
  0
VERTEX
  8
LEGEND_BOX
  5
55A
 10
6590.0
 20
490.0
 30
0.0
  0
VERTEX
  8
LEGEND_BOX
  5
55B
 10
6010.0
 20
490.0
 30
0.0
  0
VERTEX
  8
LEGEND_BOX
  5
55C
 10
6010.0
 20
490.0
 30
0.0
  0
SEQEND
  8
0
  5
55D
  0
TEXT
  8
TEXT
  5
55E
 10
6310.0
 20
450.0
 30
-0.0
 40
20.0
  1
LEGEND
 72
     1
 11
6310.0
 21
450.0
 31
-0.0
1001
VD_XPROPERTIES
  0
POLYLINE
  8
WS500
 62
     3
  5
55F
 66
     1
 10
0.0
 20
0.0
 30
0.0
1001
VDEXTRAPARAM
1071
        0
1071
        0
1071
        0
1040
1.0
1000

1000

1001
VD_XPROPERTIES
  0
VERTEX
  8
WS500
 62
     3
  5
560
 10
6060.0
 20
420.0
 30
0.0
  0
VERTEX
  8
WS500
 62
     3
  5
561
 10
6280.0
 20
420.0
 30
0.0
  0
VERTEX
  8
WS500
 62
     3
  5
562
 10
6280.0
 20
420.0
 30
0.0
  0
SEQEND
  8
0
  5
563
  0
TEXT
  8
TEXT
  5
564
 10
6330.0
 20
410.0
 30
0.0
 40
20.0
  1
500-YEAR FLOOD
1001
VD_XPROPERTIES
  0
POLYLINE
  8
WS100
 62
     1
  5
565
 66
     1
 10
0.0
 20
0.0
 30
0.0
1001
VDEXTRAPARAM
1071
        0
1071
        0
1071
        0
1040
1.0
1000

1000

1001
VD_XPROPERTIES
  0
VERTEX
  8
WS100
 62
     1
  5
566
 10
6060.0
 20
370.0
 30
0.0
  0
VERTEX
  8
WS100
 62
     1
  5
567
 10
6280.0
 20
370.0
 30
0.0
  0
VERTEX
  8
WS100
 62
     1
  5
568
 10
6280.0
 20
370.0
 30
0.0
  0
SEQEND
  8
0
  5
569
  0
TEXT
  8
TEXT
  5
56A
 10
6330.0
 20
360.0
 30
0.0
 40
20.0
  1
100-YEAR FLOOD
1001
VD_XPROPERTIES
  0
POLYLINE
  8
WS50
 62
     5
  5
56B
 66
     1
 10
0.0
 20
0.0
 30
0.0
1001
VDEXTRAPARAM
1071
        0
1071
        0
1071
        0
1040
1.0
1000

1000

1001
VD_XPROPERTIES
  0
VERTEX
  8
WS50
 62
     5
  5
56C
 10
6060.0
 20
320.0
 30
0.0
  0
VERTEX
  8
WS50
 62
     5
  5
56D
 10
6280.0
 20
320.0
 30
0.0
  0
VERTEX
  8
WS50
 62
     5
  5
56E
 10
6280.0
 20
320.0
 30
0.0
  0
SEQEND
  8
0
  5
56F
  0
TEXT
  8
TEXT
  5
570
 10
6330.0
 20
310.0
 30
0.0
 40
20.0
  1
50-YEAR FLOOD
1001
VD_XPROPERTIES
  0
POLYLINE
  8
WS10
 62
     6
  5
571
 66
     1
 10
0.0
 20
0.0
 30
0.0
1001
VDEXTRAPARAM
1071
        0
1071
        0
1071
        0
1040
1.0
1000

1000

1001
VD_XPROPERTIES
  0
VERTEX
  8
WS10
 62
     6
  5
572
 10
6060.0
 20
270.0
 30
0.0
  0
VERTEX
  8
WS10
 62
     6
  5
573
 10
6280.0
 20
270.0
 30
0.0
  0
VERTEX
  8
WS10
 62
     6
  5
574
 10
6280.0
 20
270.0
 30
0.0
  0
SEQEND
  8
0
  5
575
  0
TEXT
  8
TEXT
  5
576
 10
6330.0
 20
260.0
 30
0.0
 40
20.0
  1
10-YEAR FLOOD
1001
VD_XPROPERTIES
  0
POLYLINE
  8
STREAM
 62
     1
  5
577
 66
     1
 10
0.0
 20
0.0
 30
0.0
1001
VDEXTRAPARAM
1071
        0
1071
        0
1071
        0
1040
1.0
1000

1000

1001
VD_XPROPERTIES
  0
VERTEX
  8
STREAM
 62
     1
  5
578
 10
6060.0
 20
230.0
 30
0.0
  0
VERTEX
  8
STREAM
 62
     1
  5
579
 10
6280.0
 20
230.0
 30
0.0
  0
VERTEX
  8
STREAM
 62
     1
  5
57A
 10
6280.0
 20
230.0
 30
0.0
  0
SEQEND
  8
0
  5
57B
  0
TEXT
  8
TEXT
  5
57C
 10
6330.0
 20
210.0
 30
0.0
 40
20.0
  1
STREAM BED
1001
VD_XPROPERTIES
  0
INSERT
  8
ROCK
 62
     1
  5
57D
  2
ROCK
 10
6060.0
 20
229.7998
 30
0.0
 41
200.0
 42
200.0
1001
VD_XPROPERTIES
  0
TEXT
  8
TEXT
  5
57E
 10
6330.0
 20
160.0
 30
0.0
 40
20.0
  1
CROSS SECTION
1001
VD_XPROPERTIES
  0
TEXT
  8
TEXT
  5
57F
 10
6332.0
 20
136.665
 30
0.0
 40
20.0
  1
LOCATION
1001
VD_XPROPERTIES
  0
POLYLINE
  8
LEGEND_XSEC
  5
580
 66
     1
 10
0.0
 20
0.0
 30
0.0
1001
VDEXTRAPARAM
1071
        0
1071
        0
1071
        0
1040
1.0
1000

1000

1001
VD_XPROPERTIES
  0
VERTEX
  8
LEGEND_XSEC
  5
581
 10
6170.0
 20
180.0
 30
0.0
  0
VERTEX
  8
LEGEND_XSEC
  5
582
 10
6144.019
 20
165.0
 30
0.0
  0
VERTEX
  8
LEGEND_XSEC
  5
583
 10
6144.019
 20
135.0
 30
0.0
  0
VERTEX
  8
LEGEND_XSEC
  5
584
 10
6170.0
 20
120.0
 30
0.0
  0
VERTEX
  8
LEGEND_XSEC
  5
585
 10
6195.981
 20
135.0
 30
0.0
  0
VERTEX
  8
LEGEND_XSEC
  5
586
 10
6195.981
 20
165.0
 30
0.0
  0
VERTEX
  8
LEGEND_XSEC
  5
587
 10
6170.0
 20
180.0
 30
0.0
  0
VERTEX
  8
LEGEND_XSEC
  5
588
 10
6170.0
 20
190.0
 30
0.0
  0
VERTEX
  8
LEGEND_XSEC
  5
589
 10
6170.0
 20
190.0
 30
0.0
  0
SEQEND
  8
0
  5
58A
  0
INSERT
  8
GRIDS
  5
58B
  2
BORDER
 10
8000.0
 20
100.0
 30
0.0
 41
200.0
 42
200.0
1001
VD_XPROPERTIES
  0
TEXT
  8
TEXT
  5
58C
 10
7935.0
 20
91.0
 30
0.0
 40
24.0
  1
 3560
1001
VD_XPROPERTIES
  0
TEXT
  8
TEXT
  5
58D
 10
7935.0
 20
291.0
 30
0.0
 40
24.0
  1
 3570
1001
VD_XPROPERTIES
  0
TEXT
  8
TEXT
  5
58E
 10
7935.0
 20
491.0
 30
0.0
 40
24.0
  1
 3580
1001
VD_XPROPERTIES
  0
TEXT
  8
TEXT
  5
58F
 10
10625.0
 20
491.0
 30
0.0
 40
24.0
  1
 3580
1001
VD_XPROPERTIES
  0
TEXT
  8
TEXT
  5
590
 10
7935.0
 20
691.0
 30
0.0
 40
24.0
  1
 3590
1001
VD_XPROPERTIES
  0
TEXT
  8
TEXT
  5
591
 10
10625.0
 20
691.0
 30
0.0
 40
24.0
  1
 3590
1001
VD_XPROPERTIES
  0
TEXT
  8
TEXT
  5
592
 10
7935.0
 20
891.0
 30
0.0
 40
24.0
  1
 3600
1001
VD_XPROPERTIES
  0
TEXT
  8
TEXT
  5
593
 10
10625.0
 20
891.0
 30
0.0
 40
24.0
  1
 3600
1001
VD_XPROPERTIES
  0
TEXT
  8
TEXT
  5
594
 10
7935.0
 20
1091.0
 30
0.0
 40
24.0
  1
 3610
1001
VD_XPROPERTIES
  0
TEXT
  8
TEXT
  5
595
 10
10625.0
 20
1091.0
 30
0.0
 40
24.0
  1
 3610
1001
VD_XPROPERTIES
  0
TEXT
  8
TEXT
  5
596
 10
7935.0
 20
1291.0
 30
0.0
 40
24.0
  1
 3620
1001
VD_XPROPERTIES
  0
TEXT
  8
TEXT
  5
597
 10
10625.0
 20
1291.0
 30
0.0
 40
24.0
  1
 3620
1001
VD_XPROPERTIES
  0
TEXT
  8
TEXT
  5
598
 10
7935.0
 20
1491.0
 30
0.0
 40
24.0
  1
 3630
1001
VD_XPROPERTIES
  0
TEXT
  8
TEXT
  5
599
 10
10625.0
 20
1491.0
 30
0.0
 40
24.0
  1
 3630
1001
VD_XPROPERTIES
  0
TEXT
  8
TEXT
  5
59A
 10
7935.0
 20
1691.0
 30
0.0
 40
24.0
  1
 3640
1001
VD_XPROPERTIES
  0
TEXT
  8
TEXT
  5
59B
 10
10625.0
 20
1691.0
 30
0.0
 40
24.0
  1
 3640
1001
VD_XPROPERTIES
  0
TEXT
  8
TEXT
  5
59C
 10
7935.0
 20
1891.0
 30
0.0
 40
24.0
  1
 3650
1001
VD_XPROPERTIES
  0
TEXT
  8
TEXT
  5
59D
 10
10625.0
 20
1891.0
 30
0.0
 40
24.0
  1
 3650
1001
VD_XPROPERTIES
  0
TEXT
  8
TEXT
  5
59E
 10
8003.5
 20
60.0
 30
-0.0
 40
24.0
  1
18000
 72
     1
 11
8003.5
 21
60.0
 31
-0.0
1001
VD_XPROPERTIES
  0
TEXT
  8
TEXT
  5
59F
 10
8203.5
 20
60.0
 30
-0.0
 40
24.0
  1
18200
 72
     1
 11
8203.5
 21
60.0
 31
-0.0
1001
VD_XPROPERTIES
  0
TEXT
  8
TEXT
  5
5A0
 10
8403.5
 20
60.0
 30
-0.0
 40
24.0
  1
18400
 72
     1
 11
8403.5
 21
60.0
 31
-0.0
1001
VD_XPROPERTIES
  0
TEXT
  8
TEXT
  5
5A1
 10
8603.5
 20
60.0
 30
-0.0
 40
24.0
  1
18600
 72
     1
 11
8603.5
 21
60.0
 31
-0.0
1001
VD_XPROPERTIES
  0
TEXT
  8
TEXT
  5
5A2
 10
8803.5
 20
60.0
 30
-0.0
 40
24.0
  1
18800
 72
     1
 11
8803.5
 21
60.0
 31
-0.0
1001
VD_XPROPERTIES
  0
TEXT
  8
TEXT
  5
5A3
 10
9003.5
 20
60.0
 30
-0.0
 40
24.0
  1
19000
 72
     1
 11
9003.5
 21
60.0
 31
-0.0
1001
VD_XPROPERTIES
  0
TEXT
  8
TEXT
  5
5A4
 10
9203.5
 20
60.0
 30
-0.0
 40
24.0
  1
19200
 72
     1
 11
9203.5
 21
60.0
 31
-0.0
1001
VD_XPROPERTIES
  0
TEXT
  8
TEXT
  5
5A5
 10
9403.5
 20
60.0
 30
-0.0
 40
24.0
  1
19400
 72
     1
 11
9403.5
 21
60.0
 31
-0.0
1001
VD_XPROPERTIES
  0
TEXT
  8
TEXT
  5
5A6
 10
9603.5
 20
60.0
 30
-0.0
 40
24.0
  1
19600
 72
     1
 11
9603.5
 21
60.0
 31
-0.0
1001
VD_XPROPERTIES
  0
TEXT
  8
TEXT
  5
5A7
 10
9803.5
 20
60.0
 30
-0.0
 40
24.0
  1
19800
 72
     1
 11
9803.5
 21
60.0
 31
-0.0
1001
VD_XPROPERTIES
  0
TEXT
  8
TEXT
  5
5A8
 10
10003.5
 20
60.0
 30
-0.0
 40
24.0
  1
20000
 72
     1
 11
10003.5
 21
60.0
 31
-0.0
1001
VD_XPROPERTIES
  0
TEXT
  8
TEXT
  5
5A9
 10
10203.5
 20
60.0
 30
-0.0
 40
24.0
  1
20200
 72
     1
 11
10203.5
 21
60.0
 31
-0.0
1001
VD_XPROPERTIES
  0
TEXT
  8
TEXT
  5
5AA
 10
10403.5
 20
60.0
 30
-0.0
 40
24.0
  1
20400
 72
     1
 11
10403.5
 21
60.0
 31
-0.0
1001
VD_XPROPERTIES
  0
TEXT
  8
TEXT
  5
5AB
 10
10603.5
 20
60.0
 30
-0.0
 40
24.0
  1
20600
 72
     1
 11
10603.5
 21
60.0
 31
-0.0
1001
VD_XPROPERTIES
  0
TEXT
  8
TEXT
  5
5AC
 10
7888.0
 20
1000.0
 30
-0.0
 40
24.0
  1
ELEVATION IN FEET (NGVD)
 50
90.0
 72
     1
 11
7888.0
 21
1000.0
 31
-0.0
1001
VD_XPROPERTIES
  0
TEXT
  8
TEXT
  5
5AD
 10
9300.0
 20
-10.0
 30
-0.0
 40
24.0
  1
STREAM DISTANCE IN FEET ABOVE SEWAGE PLANT ROAD CROSSING ADJACENT TO CORPORATE LIMITS
 72
     1
 11
9300.0
 21
-10.0
 31
-0.0
1001
VD_XPROPERTIES
  0
TEXT
  8
TEXT
  5
5AE
 10
10750.0
 20
405.0
 30
-0.0
 40
32.0
  1
FEDERAL EMERGENCY MANAGEMENT AGENCY
 50
90.0
 72
     1
 11
10750.0
 21
405.0
 31
-0.0
1001
VD_XPROPERTIES
  0
TEXT
  8
TEXT
  5
5AF
 10
10820.0
 20
405.0
 30
-0.0
 40
40.0
  1
GILA COUNTY, AZ
 50
90.0
 72
     1
 11
10820.0
 21
405.0
 31
-0.0
1001
VD_XPROPERTIES
  0
TEXT
  8
TEXT
  5
5B0
 10
10870.0
 20
405.0
 30
-0.0
 40
28.0
  1
(UNINCORPORATED AREAS)
 50
90.0
 72
     1
 11
10870.0
 21
405.0
 31
-0.0
1001
VD_XPROPERTIES
  0
TEXT
  8
TEXT
  5
5B1
 10
10768.0
 20
1365.0
 30
-0.0
 40
40.0
  1
FLOOD PROFILES
 50
90.0
 72
     1
 11
10768.0
 21
1365.0
 31
-0.0
1001
VD_XPROPERTIES
  0
TEXT
  8
TEXT
  5
5B2
 10
10860.0
 20
1365.0
 30
-0.0
 40
32.0
  1
PINAL CREEK (AT GLOBE)
 50
90.0
 72
     1
 11
10860.0
 21
1365.0
 31
-0.0
1001
VD_XPROPERTIES
  0
TEXT
  8
TEXT
  5
5B3
 10
10800.0
 20
-30.0
 30
-0.0
 40
40.0
  1
38P
 72
     1
 11
10800.0
 21
-30.0
 31
-0.0
1001
VD_XPROPERTIES
  0
POLYLINE
  8
WS100
 62
     1
  5
5B4
 66
     1
 10
0.0
 20
0.0
 30
0.0
1001
VDEXTRAPARAM
1071
        0
1071
        0
1071
        0
1040
1.0
1000

1000

1001
VD_XPROPERTIES
  0
VERTEX
  8
WS100
 62
     1
  5
5B5
 10
8000.0
 20
670.0488
 30
0.0
  0
VERTEX
  8
WS100
 62
     1
  5
5B6
 10
8226.6
 20
697.998
 30
0.0
  0
VERTEX
  8
WS100
 62
     1
  5
5B7
 10
8226.6
 20
697.998
 30
0.0
  0
VERTEX
  8
WS100
 62
     1
  5
5B8
 10
8723.0
 20
870.0
 30
0.0
  0
VERTEX
  8
WS100
 62
     1
  5
5B9
 10
8723.0
 20
870.0
 30
0.0
  0
VERTEX
  8
WS100
 62
     1
  5
5BA
 10
9232.0
 20
1015.2
 30
0.0
  0
VERTEX
  8
WS100
 62
     1
  5
5BB
 10
9232.0
 20
1015.2
 30
0.0
  0
VERTEX
  8
WS100
 62
     1
  5
5BC
 10
9754.801
 20
1163.599
 30
0.0
  0
VERTEX
  8
WS100
 62
     1
  5
5BD
 10
9754.801
 20
1163.599
 30
0.0
  0
VERTEX
  8
WS100
 62
     1
  5
5BE
 10
9814.102
 20
1174.8
 30
0.0
  0
VERTEX
  8
WS100
 62
     1
  5
5BF
 10
9814.102
 20
1174.8
 30
0.0
  0
VERTEX
  8
WS100
 62
     1
  5
5C0
 10
9819.701
 20
1218.999
 30
0.0
  0
VERTEX
  8
WS100
 62
     1
  5
5C1
 10
9819.701
 20
1218.999
 30
0.0
  0
VERTEX
  8
WS100
 62
     1
  5
5C2
 10
9835.201
 20
1218.999
 30
0.0
  0
VERTEX
  8
WS100
 62
     1
  5
5C3
 10
9835.201
 20
1218.999
 30
0.0
  0
VERTEX
  8
WS100
 62
     1
  5
5C4
 10
9838.201
 20
1218.999
 30
0.0
  0
VERTEX
  8
WS100
 62
     1
  5
5C5
 10
9838.201
 20
1218.999
 30
0.0
  0
VERTEX
  8
WS100
 62
     1
  5
5C6
 10
9895.002
 20
1218.999
 30
0.0
  0
VERTEX
  8
WS100
 62
     1
  5
5C7
 10
9895.002
 20
1218.999
 30
0.0
  0
VERTEX
  8
WS100
 62
     1
  5
5C8
 10
10345.2
 20
1350.801
 30
0.0
  0
VERTEX
  8
WS100
 62
     1
  5
5C9
 10
10600.0
 20
1438.423
 30
0.0
  0
VERTEX
  8
WS100
 62
     1
  5
5CA
 10
10600.0
 20
1438.423
 30
0.0
  0
VERTEX
  8
WS100
 62
     1
  5
5CB
 10
10600.0
 20
1438.423
 30
0.0
  0
SEQEND
  8
0
  5
5CC
  0
INSERT
  8
ROCK
 62
     1
  5
5CD
  2
ROCK
 10
8000.0
 20
485.9131
 30
0.0
 41
200.0
 42
200.0
 50
15.65126
1001
VD_XPROPERTIES
  0
INSERT
  8
ROCK
 62
     1
  5
5CE
  2
ROCK
 10
8226.6
 20
549.3994
 30
0.0
 41
200.0
 42
200.0
 50
17.31981
1001
VD_XPROPERTIES
  0
INSERT
  8
ROCK
 62
     1
  5
5CF
  2
ROCK
 10
8723.0
 20
704.1992
 30
0.0
 41
200.0
 42
200.0
 50
13.24426
1001
VD_XPROPERTIES
  0
POLYLINE
  8
STREAM
 62
     1
  5
5D0
 66
     1
 10
0.0
 20
0.0
 30
0.0
1001
VDEXTRAPARAM
1071
        0
1071
        0
1071
        0
1040
1.0
1000

1000

1001
VD_XPROPERTIES
  0
VERTEX
  8
STREAM
 62
     1
  5
5D1
 10
8000.0
 20
485.9131
 30
0.0
  0
VERTEX
  8
STREAM
 62
     1
  5
5D2
 10
8226.6
 20
549.3994
 30
0.0
  0
VERTEX
  8
STREAM
 62
     1
  5
5D3
 10
8226.6
 20
549.3994
 30
0.0
  0
VERTEX
  8
STREAM
 62
     1
  5
5D4
 10
8723.0
 20
704.1992
 30
0.0
  0
VERTEX
  8
STREAM
 62
     1
  5
5D5
 10
8723.0
 20
704.1992
 30
0.0
  0
VERTEX
  8
STREAM
 62
     1
  5
5D6
 10
9232.0
 20
823.999
 30
0.0
  0
VERTEX
  8
STREAM
 62
     1
  5
5D7
 10
9232.0
 20
823.999
 30
0.0
  0
VERTEX
  8
STREAM
 62
     1
  5
5D8
 10
9754.801
 20
972.002
 30
0.0
  0
VERTEX
  8
STREAM
 62
     1
  5
5D9
 10
9754.801
 20
972.002
 30
0.0
  0
VERTEX
  8
STREAM
 62
     1
  5
5DA
 10
9814.102
 20
977.002
 30
0.0
  0
VERTEX
  8
STREAM
 62
     1
  5
5DB
 10
9814.102
 20
977.002
 30
0.0
  0
VERTEX
  8
STREAM
 62
     1
  5
5DC
 10
9819.701
 20
976.001
 30
0.0
  0
VERTEX
  8
STREAM
 62
     1
  5
5DD
 10
9819.701
 20
976.001
 30
0.0
  0
VERTEX
  8
STREAM
 62
     1
  5
5DE
 10
9835.201
 20
986.001
 30
0.0
  0
VERTEX
  8
STREAM
 62
     1
  5
5DF
 10
9835.201
 20
986.001
 30
0.0
  0
VERTEX
  8
STREAM
 62
     1
  5
5E0
 10
9838.201
 20
987.998
 30
0.0
  0
VERTEX
  8
STREAM
 62
     1
  5
5E1
 10
9838.201
 20
987.998
 30
0.0
  0
VERTEX
  8
STREAM
 62
     1
  5
5E2
 10
9895.002
 20
1007.998
 30
0.0
  0
VERTEX
  8
STREAM
 62
     1
  5
5E3
 10
9895.002
 20
1007.998
 30
0.0
  0
VERTEX
  8
STREAM
 62
     1
  5
5E4
 10
10345.2
 20
1136.001
 30
0.0
  0
VERTEX
  8
STREAM
 62
     1
  5
5E5
 10
10600.0
 20
1205.801
 30
0.0
  0
VERTEX
  8
STREAM
 62
     1
  5
5E6
 10
10600.0
 20
1205.801
 30
0.0
  0
SEQEND
  8
0
  5
5E7
  0
INSERT
  8
XSEC
 62
     3
  5
5E8
  2
XSEC
 10
8723.0
 20
170.0
 30
0.0
 41
200.0
 42
200.0
1001
VD_XPROPERTIES
  0
TEXT
  8
TEXT
  5
5E9
 10
8723.0
 20
170.0
 30
-0.0
 40
20.0
  1
AK
 72
     1
 11
8723.0
 21
170.0
 31
-0.0
 73
     2
1001
VD_XPROPERTIES
  0
INSERT
  8
XSEC
 62
     3
  5
5EA
  2
XSEC
 10
9838.201
 20
170.0
 30
0.0
 41
200.0
 42
200.0
1001
VD_XPROPERTIES
  0
TEXT
  8
TEXT
  5
5EB
 10
9838.201
 20
170.0
 30
-0.0
 40
20.0
  1
AL
 72
     1
 11
9838.201
 21
170.0
 31
-0.0
 73
     2
1001
VD_XPROPERTIES
  0
POLYLINE
  8
CULVERT
  5
5EC
 66
     1
 10
0.0
 20
0.0
 30
0.0
1001
VDEXTRAPARAM
1071
       11
1071
        0
1071
      255
1040
20.0
1000
CULVERT
1000
 
1001
VD_XPROPERTIES
  0
VERTEX
  8
CULVERT
  5
5ED
 10
9819.701
 20
1056.001
 30
0.0
  0
VERTEX
  8
CULVERT
  5
5EE
 10
9819.701
 20
1078.369
 30
0.0
  0
VERTEX
  8
CULVERT
  5
5EF
 10
9835.201
 20
1078.145
 30
0.0
  0
VERTEX
  8
CULVERT
  5
5F0
 10
9835.201
 20
1066.001
 30
0.0
  0
VERTEX
  8
CULVERT
  5
5F1
 10
9819.701
 20
1056.001
 30
0.0
  0
SEQEND
  8
0
  5
5F2
  0
POLYLINE
  8
XSECTEXTLINE
  5
5F4
 66
     1
 10
0.0
 20
0.0
 30
0.0
1001
VDEXTRAPARAM
1071
        0
1071
        0
1071
        0
1040
1.0
1000

1000

1001
VD_XPROPERTIES
  0
VERTEX
  8
XSECTEXTLINE
  5
5F5
 10
9835.201
 20
1500.0
 30
0.0
  0
VERTEX
  8
XSECTEXTLINE
  5
5F6
 10
9835.201
 20
1700.0
 30
0.0
  0
VERTEX
  8
XSECTEXTLINE
  5
5F7
 10
9835.201
 20
1700.0
 30
0.0
  0
SEQEND
  8
0
  5
5F8
  0
TEXT
  8
TEXT
  5
5F9
 10
9825.201
 20
1600.0
 30
-0.0
 40
24.0
  1
PRIVATE DRIVE
 50
90.0
 72
     1
 11
9825.201
 21
1600.0
 31
-0.0
1001
VD_XPROPERTIES
  0
POLYLINE
  8
LANDMARKLINE
  5
5FA
 66
     1
 10
0.0
 20
0.0
 30
0.0
1001
VDEXTRAPARAM
1071
        0
1071
        0
1071
        0
1040
1.0
1000

1000

1001
VD_XPROPERTIES
  0
VERTEX
  8
LANDMARKLINE
  5
5FB
 10
8350.0
 20
1500.0
 30
0.0
  0
VERTEX
  8
LANDMARKLINE
  5
5FC
 10
8350.0
 20
1700.0
 30
0.0
  0
VERTEX
  8
LANDMARKLINE
  5
5FD
 10
8350.0
 20
1700.0
 30
0.0
  0
SEQEND
  8
0
  5
5FE
  0
TEXT
  8
TEXT
  5
5FF
 10
8340.0
 20
1600.0
 30
-0.0
 40
24.0
  1
CITY OF GLOBE
 50
90.0
 72
     1
 11
8340.0
 21
1600.0
 31
-0.0
1001
VD_XPROPERTIES
  0
TEXT
  8
TEXT
  5
600
 10
8380.0
 20
1600.0
 30
-0.0
 40
24.0
  1
GILA COUNTY
 50
90.0
 72
     1
 11
8380.0
 21
1600.0
 31
-0.0
1001
VD_XPROPERTIES
  0
POLYLINE
  8
LEGEND_BOX
  5
601
 66
     1
 10
0.0
 20
0.0
 30
0.0
1001
VDEXTRAPARAM
1071
        0
1071
        0
1071
        0
1040
1.0
1000

1000

1001
VD_XPROPERTIES
  0
VERTEX
  8
LEGEND_BOX
  5
602
 10
10010.0
 20
490.0
 30
0.0
  0
VERTEX
  8
LEGEND_BOX
  5
603
 10
10010.0
 20
110.0
 30
0.0
  0
VERTEX
  8
LEGEND_BOX
  5
604
 10
10590.0
 20
110.0
 30
0.0
  0
VERTEX
  8
LEGEND_BOX
  5
605
 10
10590.0
 20
490.0
 30
0.0
  0
VERTEX
  8
LEGEND_BOX
  5
606
 10
10010.0
 20
490.0
 30
0.0
  0
VERTEX
  8
LEGEND_BOX
  5
607
 10
10010.0
 20
490.0
 30
0.0
  0
SEQEND
  8
0
  5
608
  0
TEXT
  8
TEXT
  5
609
 10
10310.0
 20
450.0
 30
-0.0
 40
20.0
  1
LEGEND
 72
     1
 11
10310.0
 21
450.0
 31
-0.0
1001
VD_XPROPERTIES
  0
POLYLINE
  8
WS500
 62
     3
  5
60A
 66
     1
 10
0.0
 20
0.0
 30
0.0
1001
VDEXTRAPARAM
1071
        0
1071
        0
1071
        0
1040
1.0
1000

1000

1001
VD_XPROPERTIES
  0
VERTEX
  8
WS500
 62
     3
  5
60B
 10
10060.0
 20
420.0
 30
0.0
  0
VERTEX
  8
WS500
 62
     3
  5
60C
 10
10280.0
 20
420.0
 30
0.0
  0
VERTEX
  8
WS500
 62
     3
  5
60D
 10
10280.0
 20
420.0
 30
0.0
  0
SEQEND
  8
0
  5
60E
  0
TEXT
  8
TEXT
  5
60F
 10
10330.0
 20
410.0
 30
0.0
 40
20.0
  1
500-YEAR FLOOD
1001
VD_XPROPERTIES
  0
POLYLINE
  8
WS100
 62
     1
  5
610
 66
     1
 10
0.0
 20
0.0
 30
0.0
1001
VDEXTRAPARAM
1071
        0
1071
        0
1071
        0
1040
1.0
1000

1000

1001
VD_XPROPERTIES
  0
VERTEX
  8
WS100
 62
     1
  5
611
 10
10060.0
 20
370.0
 30
0.0
  0
VERTEX
  8
WS100
 62
     1
  5
612
 10
10280.0
 20
370.0
 30
0.0
  0
VERTEX
  8
WS100
 62
     1
  5
613
 10
10280.0
 20
370.0
 30
0.0
  0
SEQEND
  8
0
  5
614
  0
TEXT
  8
TEXT
  5
615
 10
10330.0
 20
360.0
 30
0.0
 40
20.0
  1
100-YEAR FLOOD
1001
VD_XPROPERTIES
  0
POLYLINE
  8
WS50
 62
     5
  5
616
 66
     1
 10
0.0
 20
0.0
 30
0.0
1001
VDEXTRAPARAM
1071
        0
1071
        0
1071
        0
1040
1.0
1000

1000

1001
VD_XPROPERTIES
  0
VERTEX
  8
WS50
 62
     5
  5
617
 10
10060.0
 20
320.0
 30
0.0
  0
VERTEX
  8
WS50
 62
     5
  5
618
 10
10280.0
 20
320.0
 30
0.0
  0
VERTEX
  8
WS50
 62
     5
  5
619
 10
10280.0
 20
320.0
 30
0.0
  0
SEQEND
  8
0
  5
61A
  0
TEXT
  8
TEXT
  5
61B
 10
10330.0
 20
310.0
 30
0.0
 40
20.0
  1
50-YEAR FLOOD
1001
VD_XPROPERTIES
  0
POLYLINE
  8
WS10
 62
     6
  5
61C
 66
     1
 10
0.0
 20
0.0
 30
0.0
1001
VDEXTRAPARAM
1071
        0
1071
        0
1071
        0
1040
1.0
1000

1000

1001
VD_XPROPERTIES
  0
VERTEX
  8
WS10
 62
     6
  5
61D
 10
10060.0
 20
270.0
 30
0.0
  0
VERTEX
  8
WS10
 62
     6
  5
61E
 10
10280.0
 20
270.0
 30
0.0
  0
VERTEX
  8
WS10
 62
     6
  5
61F
 10
10280.0
 20
270.0
 30
0.0
  0
SEQEND
  8
0
  5
620
  0
TEXT
  8
TEXT
  5
621
 10
10330.0
 20
260.0
 30
0.0
 40
20.0
  1
10-YEAR FLOOD
1001
VD_XPROPERTIES
  0
POLYLINE
  8
STREAM
 62
     1
  5
622
 66
     1
 10
0.0
 20
0.0
 30
0.0
1001
VDEXTRAPARAM
1071
        0
1071
        0
1071
        0
1040
1.0
1000

1000

1001
VD_XPROPERTIES
  0
VERTEX
  8
STREAM
 62
     1
  5
623
 10
10060.0
 20
230.0
 30
0.0
  0
VERTEX
  8
STREAM
 62
     1
  5
624
 10
10280.0
 20
230.0
 30
0.0
  0
VERTEX
  8
STREAM
 62
     1
  5
625
 10
10280.0
 20
230.0
 30
0.0
  0
SEQEND
  8
0
  5
626
  0
TEXT
  8
TEXT
  5
627
 10
10330.0
 20
210.0
 30
0.0
 40
20.0
  1
STREAM BED
1001
VD_XPROPERTIES
  0
INSERT
  8
ROCK
 62
     1
  5
628
  2
ROCK
 10
10060.0
 20
229.7998
 30
0.0
 41
200.0
 42
200.0
1001
VD_XPROPERTIES
  0
TEXT
  8
TEXT
  5
629
 10
10330.0
 20
160.0
 30
0.0
 40
20.0
  1
CROSS SECTION
1001
VD_XPROPERTIES
  0
TEXT
  8
TEXT
  5
62A
 10
10332.0
 20
136.665
 30
0.0
 40
20.0
  1
LOCATION
1001
VD_XPROPERTIES
  0
POLYLINE
  8
LEGEND_XSEC
  5
62B
 66
     1
 10
0.0
 20
0.0
 30
0.0
1001
VDEXTRAPARAM
1071
        0
1071
        0
1071
        0
1040
1.0
1000

1000

1001
VD_XPROPERTIES
  0
VERTEX
  8
LEGEND_XSEC
  5
62C
 10
10170.0
 20
180.0
 30
0.0
  0
VERTEX
  8
LEGEND_XSEC
  5
62D
 10
10144.02
 20
165.0
 30
0.0
  0
VERTEX
  8
LEGEND_XSEC
  5
62E
 10
10144.02
 20
135.0
 30
0.0
  0
VERTEX
  8
LEGEND_XSEC
  5
62F
 10
10170.0
 20
120.0
 30
0.0
  0
VERTEX
  8
LEGEND_XSEC
  5
630
 10
10195.98
 20
135.0
 30
0.0
  0
VERTEX
  8
LEGEND_XSEC
  5
631
 10
10195.98
 20
165.0
 30
0.0
  0
VERTEX
  8
LEGEND_XSEC
  5
632
 10
10170.0
 20
180.0
 30
0.0
  0
VERTEX
  8
LEGEND_XSEC
  5
633
 10
10170.0
 20
190.0
 30
0.0
  0
VERTEX
  8
LEGEND_XSEC
  5
634
 10
10170.0
 20
190.0
 30
0.0
  0
SEQEND
  8
0
  5
635
  0
INSERT
  8
GRIDS
  5
636
  2
BORDER
 10
12000.0
 20
100.0
 30
0.0
 41
200.0
 42
200.0
1001
VD_XPROPERTIES
  0
TEXT
  8
TEXT
  5
637
 10
11935.0
 20
91.0
 30
0.0
 40
24.0
  1
 3590
1001
VD_XPROPERTIES
  0
TEXT
  8
TEXT
  5
638
 10
11935.0
 20
291.0
 30
0.0
 40
24.0
  1
 3600
1001
VD_XPROPERTIES
  0
TEXT
  8
TEXT
  5
639
 10
11935.0
 20
491.0
 30
0.0
 40
24.0
  1
 3610
1001
VD_XPROPERTIES
  0
TEXT
  8
TEXT
  5
63A
 10
14625.0
 20
491.0
 30
0.0
 40
24.0
  1
 3610
1001
VD_XPROPERTIES
  0
TEXT
  8
TEXT
  5
63B
 10
11935.0
 20
691.0
 30
0.0
 40
24.0
  1
 3620
1001
VD_XPROPERTIES
  0
TEXT
  8
TEXT
  5
63C
 10
14625.0
 20
691.0
 30
0.0
 40
24.0
  1
 3620
1001
VD_XPROPERTIES
  0
TEXT
  8
TEXT
  5
63D
 10
11935.0
 20
891.0
 30
0.0
 40
24.0
  1
 3630
1001
VD_XPROPERTIES
  0
TEXT
  8
TEXT
  5
63E
 10
14625.0
 20
891.0
 30
0.0
 40
24.0
  1
 3630
1001
VD_XPROPERTIES
  0
TEXT
  8
TEXT
  5
63F
 10
11935.0
 20
1091.0
 30
0.0
 40
24.0
  1
 3640
1001
VD_XPROPERTIES
  0
TEXT
  8
TEXT
  5
640
 10
14625.0
 20
1091.0
 30
0.0
 40
24.0
  1
 3640
1001
VD_XPROPERTIES
  0
TEXT
  8
TEXT
  5
641
 10
11935.0
 20
1291.0
 30
0.0
 40
24.0
  1
 3650
1001
VD_XPROPERTIES
  0
TEXT
  8
TEXT
  5
642
 10
14625.0
 20
1291.0
 30
0.0
 40
24.0
  1
 3650
1001
VD_XPROPERTIES
  0
TEXT
  8
TEXT
  5
643
 10
11935.0
 20
1491.0
 30
0.0
 40
24.0
  1
 3660
1001
VD_XPROPERTIES
  0
TEXT
  8
TEXT
  5
644
 10
14625.0
 20
1491.0
 30
0.0
 40
24.0
  1
 3660
1001
VD_XPROPERTIES
  0
TEXT
  8
TEXT
  5
645
 10
11935.0
 20
1691.0
 30
0.0
 40
24.0
  1
 3670
1001
VD_XPROPERTIES
  0
TEXT
  8
TEXT
  5
646
 10
14625.0
 20
1691.0
 30
0.0
 40
24.0
  1
 3670
1001
VD_XPROPERTIES
  0
TEXT
  8
TEXT
  5
647
 10
11935.0
 20
1891.0
 30
0.0
 40
24.0
  1
 3680
1001
VD_XPROPERTIES
  0
TEXT
  8
TEXT
  5
648
 10
14625.0
 20
1891.0
 30
0.0
 40
24.0
  1
 3680
1001
VD_XPROPERTIES
  0
TEXT
  8
TEXT
  5
649
 10
12003.5
 20
60.0
 30
-0.0
 40
24.0
  1
20600
 72
     1
 11
12003.5
 21
60.0
 31
-0.0
1001
VD_XPROPERTIES
  0
TEXT
  8
TEXT
  5
64A
 10
12203.5
 20
60.0
 30
-0.0
 40
24.0
  1
20800
 72
     1
 11
12203.5
 21
60.0
 31
-0.0
1001
VD_XPROPERTIES
  0
TEXT
  8
TEXT
  5
64B
 10
12403.5
 20
60.0
 30
-0.0
 40
24.0
  1
21000
 72
     1
 11
12403.5
 21
60.0
 31
-0.0
1001
VD_XPROPERTIES
  0
TEXT
  8
TEXT
  5
64C
 10
12603.5
 20
60.0
 30
-0.0
 40
24.0
  1
21200
 72
     1
 11
12603.5
 21
60.0
 31
-0.0
1001
VD_XPROPERTIES
  0
TEXT
  8
TEXT
  5
64D
 10
12803.5
 20
60.0
 30
-0.0
 40
24.0
  1
21400
 72
     1
 11
12803.5
 21
60.0
 31
-0.0
1001
VD_XPROPERTIES
  0
TEXT
  8
TEXT
  5
64E
 10
13003.5
 20
60.0
 30
-0.0
 40
24.0
  1
21600
 72
     1
 11
13003.5
 21
60.0
 31
-0.0
1001
VD_XPROPERTIES
  0
TEXT
  8
TEXT
  5
64F
 10
13203.5
 20
60.0
 30
-0.0
 40
24.0
  1
21800
 72
     1
 11
13203.5
 21
60.0
 31
-0.0
1001
VD_XPROPERTIES
  0
TEXT
  8
TEXT
  5
650
 10
13403.5
 20
60.0
 30
-0.0
 40
24.0
  1
22000
 72
     1
 11
13403.5
 21
60.0
 31
-0.0
1001
VD_XPROPERTIES
  0
TEXT
  8
TEXT
  5
651
 10
13603.5
 20
60.0
 30
-0.0
 40
24.0
  1
22200
 72
     1
 11
13603.5
 21
60.0
 31
-0.0
1001
VD_XPROPERTIES
  0
TEXT
  8
TEXT
  5
652
 10
13803.5
 20
60.0
 30
-0.0
 40
24.0
  1
22400
 72
     1
 11
13803.5
 21
60.0
 31
-0.0
1001
VD_XPROPERTIES
  0
TEXT
  8
TEXT
  5
653
 10
14003.5
 20
60.0
 30
-0.0
 40
24.0
  1
22600
 72
     1
 11
14003.5
 21
60.0
 31
-0.0
1001
VD_XPROPERTIES
  0
TEXT
  8
TEXT
  5
654
 10
14203.5
 20
60.0
 30
-0.0
 40
24.0
  1
22800
 72
     1
 11
14203.5
 21
60.0
 31
-0.0
1001
VD_XPROPERTIES
  0
TEXT
  8
TEXT
  5
655
 10
14403.5
 20
60.0
 30
-0.0
 40
24.0
  1
23000
 72
     1
 11
14403.5
 21
60.0
 31
-0.0
1001
VD_XPROPERTIES
  0
TEXT
  8
TEXT
  5
656
 10
14603.5
 20
60.0
 30
-0.0
 40
24.0
  1
23200
 72
     1
 11
14603.5
 21
60.0
 31
-0.0
1001
VD_XPROPERTIES
  0
TEXT
  8
TEXT
  5
657
 10
11888.0
 20
1000.0
 30
-0.0
 40
24.0
  1
ELEVATION IN FEET (NGVD)
 50
90.0
 72
     1
 11
11888.0
 21
1000.0
 31
-0.0
1001
VD_XPROPERTIES
  0
TEXT
  8
TEXT
  5
658
 10
13300.0
 20
-10.0
 30
-0.0
 40
24.0
  1
STREAM DISTANCE IN FEET ABOVE SEWAGE PLANT ROAD CROSSING ADJACENT TO CORPORATE LIMITS
 72
     1
 11
13300.0
 21
-10.0
 31
-0.0
1001
VD_XPROPERTIES
  0
TEXT
  8
TEXT
  5
659
 10
14750.0
 20
405.0
 30
-0.0
 40
32.0
  1
FEDERAL EMERGENCY MANAGEMENT AGENCY
 50
90.0
 72
     1
 11
14750.0
 21
405.0
 31
-0.0
1001
VD_XPROPERTIES
  0
TEXT
  8
TEXT
  5
65A
 10
14820.0
 20
405.0
 30
-0.0
 40
40.0
  1
GILA COUNTY, AZ
 50
90.0
 72
     1
 11
14820.0
 21
405.0
 31
-0.0
1001
VD_XPROPERTIES
  0
TEXT
  8
TEXT
  5
65B
 10
14870.0
 20
405.0
 30
-0.0
 40
28.0
  1
(UNINCORPORATED AREAS)
 50
90.0
 72
     1
 11
14870.0
 21
405.0
 31
-0.0
1001
VD_XPROPERTIES
  0
TEXT
  8
TEXT
  5
65C
 10
14768.0
 20
1365.0
 30
-0.0
 40
40.0
  1
FLOOD PROFILES
 50
90.0
 72
     1
 11
14768.0
 21
1365.0
 31
-0.0
1001
VD_XPROPERTIES
  0
TEXT
  8
TEXT
  5
65D
 10
14860.0
 20
1365.0
 30
-0.0
 40
32.0
  1
PINAL CREEK (AT GLOBE)
 50
90.0
 72
     1
 11
14860.0
 21
1365.0
 31
-0.0
1001
VD_XPROPERTIES
  0
TEXT
  8
TEXT
  5
65E
 10
14800.0
 20
-30.0
 30
-0.0
 40
40.0
  1
39P
 72
     1
 11
14800.0
 21
-30.0
 31
-0.0
1001
VD_XPROPERTIES
  0
POLYLINE
  8
WS100
 62
     1
  5
65F
 66
     1
 10
0.0
 20
0.0
 30
0.0
1001
VDEXTRAPARAM
1071
        0
1071
        0
1071
        0
1040
1.0
1000

1000

1001
VD_XPROPERTIES
  0
VERTEX
  8
WS100
 62
     1
  5
660
 10
12000.0
 20
838.4229
 30
0.0
  0
VERTEX
  8
WS100
 62
     1
  5
661
 10
12225.6
 20
916.001
 30
0.0
  0
VERTEX
  8
WS100
 62
     1
  5
662
 10
12225.6
 20
916.001
 30
0.0
  0
VERTEX
  8
WS100
 62
     1
  5
663
 10
12257.5
 20
925.2002
 30
0.0
  0
VERTEX
  8
WS100
 62
     1
  5
664
 10
12257.5
 20
925.2002
 30
0.0
  0
VERTEX
  8
WS100
 62
     1
  5
665
 10
12264.6
 20
933.3984
 30
0.0
  0
VERTEX
  8
WS100
 62
     1
  5
666
 10
12264.6
 20
933.3984
 30
0.0
  0
VERTEX
  8
WS100
 62
     1
  5
667
 10
12290.5
 20
945.4004
 30
0.0
  0
VERTEX
  8
WS100
 62
     1
  5
668
 10
12290.5
 20
945.4004
 30
0.0
  0
VERTEX
  8
WS100
 62
     1
  5
669
 10
12295.1
 20
945.4004
 30
0.0
  0
VERTEX
  8
WS100
 62
     1
  5
66A
 10
12295.1
 20
945.4004
 30
0.0
  0
VERTEX
  8
WS100
 62
     1
  5
66B
 10
12317.3
 20
953.5986
 30
0.0
  0
VERTEX
  8
WS100
 62
     1
  5
66C
 10
12317.3
 20
953.5986
 30
0.0
  0
VERTEX
  8
WS100
 62
     1
  5
66D
 10
12805.5
 20
1004.399
 30
0.0
  0
VERTEX
  8
WS100
 62
     1
  5
66E
 10
12805.5
 20
1004.399
 30
0.0
  0
VERTEX
  8
WS100
 62
     1
  5
66F
 10
13138.6
 20
1074.6
 30
0.0
  0
VERTEX
  8
WS100
 62
     1
  5
670
 10
13138.6
 20
1074.6
 30
0.0
  0
VERTEX
  8
WS100
 62
     1
  5
671
 10
13488.1
 20
1183.799
 30
0.0
  0
VERTEX
  8
WS100
 62
     1
  5
672
 10
13488.1
 20
1183.799
 30
0.0
  0
VERTEX
  8
WS100
 62
     1
  5
673
 10
13875.1
 20
1280.801
 30
0.0
  0
VERTEX
  8
WS100
 62
     1
  5
674
 10
13875.1
 20
1280.801
 30
0.0
  0
VERTEX
  8
WS100
 62
     1
  5
675
 10
14462.8
 20
1433.999
 30
0.0
  0
VERTEX
  8
WS100
 62
     1
  5
676
 10
14600.0
 20
1490.078
 30
0.0
  0
VERTEX
  8
WS100
 62
     1
  5
677
 10
14600.0
 20
1490.078
 30
0.0
  0
VERTEX
  8
WS100
 62
     1
  5
678
 10
14600.0
 20
1490.078
 30
0.0
  0
SEQEND
  8
0
  5
679
  0
INSERT
  8
ROCK
 62
     1
  5
67A
  2
ROCK
 10
12000.0
 20
605.8008
 30
0.0
 41
200.0
 42
200.0
 50
15.31873
1001
VD_XPROPERTIES
  0
INSERT
  8
ROCK
 62
     1
  5
67B
  2
ROCK
 10
12317.3
 20
699.1992
 30
0.0
 41
200.0
 42
200.0
 50
15.4357
1001
VD_XPROPERTIES
  0
INSERT
  8
ROCK
 62
     1
  5
67C
  2
ROCK
 10
12805.5
 20
833.999
 30
0.0
 41
200.0
 42
200.0
 50
7.964148
1001
VD_XPROPERTIES
  0
POLYLINE
  8
STREAM
 62
     1
  5
67D
 66
     1
 10
0.0
 20
0.0
 30
0.0
1001
VDEXTRAPARAM
1071
        0
1071
        0
1071
        0
1040
1.0
1000

1000

1001
VD_XPROPERTIES
  0
VERTEX
  8
STREAM
 62
     1
  5
67E
 10
12000.0
 20
605.8008
 30
0.0
  0
VERTEX
  8
STREAM
 62
     1
  5
67F
 10
12225.6
 20
667.5977
 30
0.0
  0
VERTEX
  8
STREAM
 62
     1
  5
680
 10
12225.6
 20
667.5977
 30
0.0
  0
VERTEX
  8
STREAM
 62
     1
  5
681
 10
12257.5
 20
638.5986
 30
0.0
  0
VERTEX
  8
STREAM
 62
     1
  5
682
 10
12257.5
 20
638.5986
 30
0.0
  0
VERTEX
  8
STREAM
 62
     1
  5
683
 10
12264.6
 20
638.5986
 30
0.0
  0
VERTEX
  8
STREAM
 62
     1
  5
684
 10
12264.6
 20
638.5986
 30
0.0
  0
VERTEX
  8
STREAM
 62
     1
  5
685
 10
12290.5
 20
696.001
 30
0.0
  0
VERTEX
  8
STREAM
 62
     1
  5
686
 10
12290.5
 20
696.001
 30
0.0
  0
VERTEX
  8
STREAM
 62
     1
  5
687
 10
12295.1
 20
692.002
 30
0.0
  0
VERTEX
  8
STREAM
 62
     1
  5
688
 10
12295.1
 20
692.002
 30
0.0
  0
VERTEX
  8
STREAM
 62
     1
  5
689
 10
12317.3
 20
699.1992
 30
0.0
  0
VERTEX
  8
STREAM
 62
     1
  5
68A
 10
12317.3
 20
699.1992
 30
0.0
  0
VERTEX
  8
STREAM
 62
     1
  5
68B
 10
12805.5
 20
833.999
 30
0.0
  0
VERTEX
  8
STREAM
 62
     1
  5
68C
 10
12805.5
 20
833.999
 30
0.0
  0
VERTEX
  8
STREAM
 62
     1
  5
68D
 10
13138.6
 20
880.6006
 30
0.0
  0
VERTEX
  8
STREAM
 62
     1
  5
68E
 10
13138.6
 20
880.6006
 30
0.0
  0
VERTEX
  8
STREAM
 62
     1
  5
68F
 10
13488.1
 20
1055.4
 30
0.0
  0
VERTEX
  8
STREAM
 62
     1
  5
690
 10
13488.1
 20
1055.4
 30
0.0
  0
VERTEX
  8
STREAM
 62
     1
  5
691
 10
13875.1
 20
1145.4
 30
0.0
  0
VERTEX
  8
STREAM
 62
     1
  5
692
 10
13875.1
 20
1145.4
 30
0.0
  0
VERTEX
  8
STREAM
 62
     1
  5
693
 10
14462.8
 20
1276.001
 30
0.0
  0
VERTEX
  8
STREAM
 62
     1
  5
694
 10
14600.0
 20
1307.378
 30
0.0
  0
VERTEX
  8
STREAM
 62
     1
  5
695
 10
14600.0
 20
1307.378
 30
0.0
  0
SEQEND
  8
0
  5
696
  0
INSERT
  8
XSEC
 62
     3
  5
697
  2
XSEC
 10
12257.5
 20
170.0
 30
0.0
 41
200.0
 42
200.0
1001
VD_XPROPERTIES
  0
TEXT
  8
TEXT
  5
698
 10
12257.5
 20
170.0
 30
-0.0
 40
20.0
  1
AM
 72
     1
 11
12257.5
 21
170.0
 31
-0.0
 73
     2
1001
VD_XPROPERTIES
  0
INSERT
  8
XSEC
 62
     3
  5
699
  2
XSEC
 10
13138.6
 20
170.0
 30
0.0
 41
200.0
 42
200.0
1001
VD_XPROPERTIES
  0
TEXT
  8
TEXT
  5
69A
 10
13138.6
 20
170.0
 30
-0.0
 40
20.0
  1
AN
 72
     1
 11
13138.6
 21
170.0
 31
-0.0
 73
     2
1001
VD_XPROPERTIES
  0
INSERT
  8
XSEC
 62
     3
  5
69B
  2
XSEC
 10
14462.8
 20
570.0
 30
0.0
 41
200.0
 42
200.0
1001
VD_XPROPERTIES
  0
TEXT
  8
TEXT
  5
69C
 10
14462.8
 20
570.0
 30
-0.0
 40
20.0
  1
AO
 72
     1
 11
14462.8
 21
570.0
 31
-0.0
 73
     2
1001
VD_XPROPERTIES
  0
LINE
  8
BRIDGE
 62
     1
  5
69D
 10
12277.55
 20
866.7969
 30
0.0
 11
12277.55
 21
971.1865
 31
0.0
1001
VD_XPROPERTIES
  0
INSERT
  8
BRIDGE
 62
     1
  5
69E
  2
BAR
 10
12277.55
 20
866.7969
 30
0.0
 41
200.0
 42
200.0
1001
VD_XPROPERTIES
  0
INSERT
  8
BRIDGE
 62
     1
  5
69F
  2
BAR
 10
12277.55
 20
971.1865
 30
0.0
 41
200.0
 42
200.0
1001
VD_XPROPERTIES
  0
POLYLINE
  8
XSECTEXTLINE
  5
6A0
 66
     1
 10
0.0
 20
0.0
 30
0.0
1001
VDEXTRAPARAM
1071
        0
1071
        0
1071
        0
1040
1.0
1000

1000

1001
VD_XPROPERTIES
  0
VERTEX
  8
XSECTEXTLINE
  5
6A1
 10
12290.5
 20
1500.0
 30
0.0
  0
VERTEX
  8
XSECTEXTLINE
  5
6A2
 10
12290.5
 20
1700.0
 30
0.0
  0
VERTEX
  8
XSECTEXTLINE
  5
6A3
 10
12290.5
 20
1700.0
 30
0.0
  0
SEQEND
  8
0
  5
6A4
  0
TEXT
  8
TEXT
  5
6A5
 10
12280.5
 20
1600.0
 30
-0.0
 40
24.0
  1
DICKSON DRIVE
 50
90.0
 72
     1
 11
12280.5
 21
1600.0
 31
-0.0
1001
VD_XPROPERTIES
  0
POLYLINE
  8
LEGEND_BOX
  5
6A6
 66
     1
 10
0.0
 20
0.0
 30
0.0
1001
VDEXTRAPARAM
1071
        0
1071
        0
1071
        0
1040
1.0
1000

1000

1001
VD_XPROPERTIES
  0
VERTEX
  8
LEGEND_BOX
  5
6A7
 10
14010.0
 20
490.0
 30
0.0
  0
VERTEX
  8
LEGEND_BOX
  5
6A8
 10
14010.0
 20
110.0
 30
0.0
  0
VERTEX
  8
LEGEND_BOX
  5
6A9
 10
14590.0
 20
110.0
 30
0.0
  0
VERTEX
  8
LEGEND_BOX
  5
6AA
 10
14590.0
 20
490.0
 30
0.0
  0
VERTEX
  8
LEGEND_BOX
  5
6AB
 10
14010.0
 20
490.0
 30
0.0
  0
VERTEX
  8
LEGEND_BOX
  5
6AC
 10
14010.0
 20
490.0
 30
0.0
  0
SEQEND
  8
0
  5
6AD
  0
TEXT
  8
TEXT
  5
6AE
 10
14310.0
 20
450.0
 30
-0.0
 40
20.0
  1
LEGEND
 72
     1
 11
14310.0
 21
450.0
 31
-0.0
1001
VD_XPROPERTIES
  0
POLYLINE
  8
WS500
 62
     3
  5
6AF
 66
     1
 10
0.0
 20
0.0
 30
0.0
1001
VDEXTRAPARAM
1071
        0
1071
        0
1071
        0
1040
1.0
1000

1000

1001
VD_XPROPERTIES
  0
VERTEX
  8
WS500
 62
     3
  5
6B0
 10
14060.0
 20
420.0
 30
0.0
  0
VERTEX
  8
WS500
 62
     3
  5
6B1
 10
14280.0
 20
420.0
 30
0.0
  0
VERTEX
  8
WS500
 62
     3
  5
6B2
 10
14280.0
 20
420.0
 30
0.0
  0
SEQEND
  8
0
  5
6B3
  0
TEXT
  8
TEXT
  5
6B4
 10
14330.0
 20
410.0
 30
0.0
 40
20.0
  1
500-YEAR FLOOD
1001
VD_XPROPERTIES
  0
POLYLINE
  8
WS100
 62
     1
  5
6B5
 66
     1
 10
0.0
 20
0.0
 30
0.0
1001
VDEXTRAPARAM
1071
        0
1071
        0
1071
        0
1040
1.0
1000

1000

1001
VD_XPROPERTIES
  0
VERTEX
  8
WS100
 62
     1
  5
6B6
 10
14060.0
 20
370.0
 30
0.0
  0
VERTEX
  8
WS100
 62
     1
  5
6B7
 10
14280.0
 20
370.0
 30
0.0
  0
VERTEX
  8
WS100
 62
     1
  5
6B8
 10
14280.0
 20
370.0
 30
0.0
  0
SEQEND
  8
0
  5
6B9
  0
TEXT
  8
TEXT
  5
6BA
 10
14330.0
 20
360.0
 30
0.0
 40
20.0
  1
100-YEAR FLOOD
1001
VD_XPROPERTIES
  0
POLYLINE
  8
WS50
 62
     5
  5
6BB
 66
     1
 10
0.0
 20
0.0
 30
0.0
1001
VDEXTRAPARAM
1071
        0
1071
        0
1071
        0
1040
1.0
1000

1000

1001
VD_XPROPERTIES
  0
VERTEX
  8
WS50
 62
     5
  5
6BC
 10
14060.0
 20
320.0
 30
0.0
  0
VERTEX
  8
WS50
 62
     5
  5
6BD
 10
14280.0
 20
320.0
 30
0.0
  0
VERTEX
  8
WS50
 62
     5
  5
6BE
 10
14280.0
 20
320.0
 30
0.0
  0
SEQEND
  8
0
  5
6BF
  0
TEXT
  8
TEXT
  5
6C0
 10
14330.0
 20
310.0
 30
0.0
 40
20.0
  1
50-YEAR FLOOD
1001
VD_XPROPERTIES
  0
POLYLINE
  8
WS10
 62
     6
  5
6C1
 66
     1
 10
0.0
 20
0.0
 30
0.0
1001
VDEXTRAPARAM
1071
        0
1071
        0
1071
        0
1040
1.0
1000

1000

1001
VD_XPROPERTIES
  0
VERTEX
  8
WS10
 62
     6
  5
6C2
 10
14060.0
 20
270.0
 30
0.0
  0
VERTEX
  8
WS10
 62
     6
  5
6C3
 10
14280.0
 20
270.0
 30
0.0
  0
VERTEX
  8
WS10
 62
     6
  5
6C4
 10
14280.0
 20
270.0
 30
0.0
  0
SEQEND
  8
0
  5
6C5
  0
TEXT
  8
TEXT
  5
6C6
 10
14330.0
 20
260.0
 30
0.0
 40
20.0
  1
10-YEAR FLOOD
1001
VD_XPROPERTIES
  0
POLYLINE
  8
STREAM
 62
     1
  5
6C7
 66
     1
 10
0.0
 20
0.0
 30
0.0
1001
VDEXTRAPARAM
1071
        0
1071
        0
1071
        0
1040
1.0
1000

1000

1001
VD_XPROPERTIES
  0
VERTEX
  8
STREAM
 62
     1
  5
6C8
 10
14060.0
 20
230.0
 30
0.0
  0
VERTEX
  8
STREAM
 62
     1
  5
6C9
 10
14280.0
 20
230.0
 30
0.0
  0
VERTEX
  8
STREAM
 62
     1
  5
6CA
 10
14280.0
 20
230.0
 30
0.0
  0
SEQEND
  8
0
  5
6CB
  0
TEXT
  8
TEXT
  5
6CC
 10
14330.0
 20
210.0
 30
0.0
 40
20.0
  1
STREAM BED
1001
VD_XPROPERTIES
  0
INSERT
  8
ROCK
 62
     1
  5
6CD
  2
ROCK
 10
14060.0
 20
229.7998
 30
0.0
 41
200.0
 42
200.0
1001
VD_XPROPERTIES
  0
TEXT
  8
TEXT
  5
6CE
 10
14330.0
 20
160.0
 30
0.0
 40
20.0
  1
CROSS SECTION
1001
VD_XPROPERTIES
  0
TEXT
  8
TEXT
  5
6CF
 10
14332.0
 20
136.665
 30
0.0
 40
20.0
  1
LOCATION
1001
VD_XPROPERTIES
  0
POLYLINE
  8
LEGEND_XSEC
  5
6D0
 66
     1
 10
0.0
 20
0.0
 30
0.0
1001
VDEXTRAPARAM
1071
        0
1071
        0
1071
        0
1040
1.0
1000

1000

1001
VD_XPROPERTIES
  0
VERTEX
  8
LEGEND_XSEC
  5
6D1
 10
14170.0
 20
180.0
 30
0.0
  0
VERTEX
  8
LEGEND_XSEC
  5
6D2
 10
14144.02
 20
165.0
 30
0.0
  0
VERTEX
  8
LEGEND_XSEC
  5
6D3
 10
14144.02
 20
135.0
 30
0.0
  0
VERTEX
  8
LEGEND_XSEC
  5
6D4
 10
14170.0
 20
120.0
 30
0.0
  0
VERTEX
  8
LEGEND_XSEC
  5
6D5
 10
14195.98
 20
135.0
 30
0.0
  0
VERTEX
  8
LEGEND_XSEC
  5
6D6
 10
14195.98
 20
165.0
 30
0.0
  0
VERTEX
  8
LEGEND_XSEC
  5
6D7
 10
14170.0
 20
180.0
 30
0.0
  0
VERTEX
  8
LEGEND_XSEC
  5
6D8
 10
14170.0
 20
190.0
 30
0.0
  0
VERTEX
  8
LEGEND_XSEC
  5
6D9
 10
14170.0
 20
190.0
 30
0.0
  0
SEQEND
  8
0
  5
6DA
  0
INSERT
  8
GRIDS
  5
6DB
  2
BORDER
 10
16000.0
 20
100.0
 30
0.0
 41
200.0
 42
200.0
1001
VD_XPROPERTIES
  0
TEXT
  8
TEXT
  5
6DC
 10
15935.0
 20
91.0
 30
0.0
 40
24.0
  1
 3630
1001
VD_XPROPERTIES
  0
TEXT
  8
TEXT
  5
6DD
 10
15935.0
 20
291.0
 30
0.0
 40
24.0
  1
 3640
1001
VD_XPROPERTIES
  0
TEXT
  8
TEXT
  5
6DE
 10
15935.0
 20
491.0
 30
0.0
 40
24.0
  1
 3650
1001
VD_XPROPERTIES
  0
TEXT
  8
TEXT
  5
6DF
 10
18625.0
 20
491.0
 30
0.0
 40
24.0
  1
 3650
1001
VD_XPROPERTIES
  0
TEXT
  8
TEXT
  5
6E0
 10
15935.0
 20
691.0
 30
0.0
 40
24.0
  1
 3660
1001
VD_XPROPERTIES
  0
TEXT
  8
TEXT
  5
6E1
 10
18625.0
 20
691.0
 30
0.0
 40
24.0
  1
 3660
1001
VD_XPROPERTIES
  0
TEXT
  8
TEXT
  5
6E2
 10
15935.0
 20
891.0
 30
0.0
 40
24.0
  1
 3670
1001
VD_XPROPERTIES
  0
TEXT
  8
TEXT
  5
6E3
 10
18625.0
 20
891.0
 30
0.0
 40
24.0
  1
 3670
1001
VD_XPROPERTIES
  0
TEXT
  8
TEXT
  5
6E4
 10
15935.0
 20
1091.0
 30
0.0
 40
24.0
  1
 3680
1001
VD_XPROPERTIES
  0
TEXT
  8
TEXT
  5
6E5
 10
18625.0
 20
1091.0
 30
0.0
 40
24.0
  1
 3680
1001
VD_XPROPERTIES
  0
TEXT
  8
TEXT
  5
6E6
 10
15935.0
 20
1291.0
 30
0.0
 40
24.0
  1
 3690
1001
VD_XPROPERTIES
  0
TEXT
  8
TEXT
  5
6E7
 10
18625.0
 20
1291.0
 30
0.0
 40
24.0
  1
 3690
1001
VD_XPROPERTIES
  0
TEXT
  8
TEXT
  5
6E8
 10
15935.0
 20
1491.0
 30
0.0
 40
24.0
  1
 3700
1001
VD_XPROPERTIES
  0
TEXT
  8
TEXT
  5
6E9
 10
18625.0
 20
1491.0
 30
0.0
 40
24.0
  1
 3700
1001
VD_XPROPERTIES
  0
TEXT
  8
TEXT
  5
6EA
 10
15935.0
 20
1691.0
 30
0.0
 40
24.0
  1
 3710
1001
VD_XPROPERTIES
  0
TEXT
  8
TEXT
  5
6EB
 10
18625.0
 20
1691.0
 30
0.0
 40
24.0
  1
 3710
1001
VD_XPROPERTIES
  0
TEXT
  8
TEXT
  5
6EC
 10
15935.0
 20
1891.0
 30
0.0
 40
24.0
  1
 3720
1001
VD_XPROPERTIES
  0
TEXT
  8
TEXT
  5
6ED
 10
18625.0
 20
1891.0
 30
0.0
 40
24.0
  1
 3720
1001
VD_XPROPERTIES
  0
TEXT
  8
TEXT
  5
6EE
 10
16003.5
 20
60.0
 30
-0.0
 40
24.0
  1
23200
 72
     1
 11
16003.5
 21
60.0
 31
-0.0
1001
VD_XPROPERTIES
  0
TEXT
  8
TEXT
  5
6EF
 10
16203.5
 20
60.0
 30
-0.0
 40
24.0
  1
23400
 72
     1
 11
16203.5
 21
60.0
 31
-0.0
1001
VD_XPROPERTIES
  0
TEXT
  8
TEXT
  5
6F0
 10
16403.5
 20
60.0
 30
-0.0
 40
24.0
  1
23600
 72
     1
 11
16403.5
 21
60.0
 31
-0.0
1001
VD_XPROPERTIES
  0
TEXT
  8
TEXT
  5
6F1
 10
16603.5
 20
60.0
 30
-0.0
 40
24.0
  1
23800
 72
     1
 11
16603.5
 21
60.0
 31
-0.0
1001
VD_XPROPERTIES
  0
TEXT
  8
TEXT
  5
6F2
 10
16803.5
 20
60.0
 30
-0.0
 40
24.0
  1
24000
 72
     1
 11
16803.5
 21
60.0
 31
-0.0
1001
VD_XPROPERTIES
  0
TEXT
  8
TEXT
  5
6F3
 10
17003.5
 20
60.0
 30
-0.0
 40
24.0
  1
24200
 72
     1
 11
17003.5
 21
60.0
 31
-0.0
1001
VD_XPROPERTIES
  0
TEXT
  8
TEXT
  5
6F4
 10
17203.5
 20
60.0
 30
-0.0
 40
24.0
  1
24400
 72
     1
 11
17203.5
 21
60.0
 31
-0.0
1001
VD_XPROPERTIES
  0
TEXT
  8
TEXT
  5
6F5
 10
17403.5
 20
60.0
 30
-0.0
 40
24.0
  1
24600
 72
     1
 11
17403.5
 21
60.0
 31
-0.0
1001
VD_XPROPERTIES
  0
TEXT
  8
TEXT
  5
6F6
 10
17603.5
 20
60.0
 30
-0.0
 40
24.0
  1
24800
 72
     1
 11
17603.5
 21
60.0
 31
-0.0
1001
VD_XPROPERTIES
  0
TEXT
  8
TEXT
  5
6F7
 10
17803.5
 20
60.0
 30
-0.0
 40
24.0
  1
25000
 72
     1
 11
17803.5
 21
60.0
 31
-0.0
1001
VD_XPROPERTIES
  0
TEXT
  8
TEXT
  5
6F8
 10
18003.5
 20
60.0
 30
-0.0
 40
24.0
  1
25200
 72
     1
 11
18003.5
 21
60.0
 31
-0.0
1001
VD_XPROPERTIES
  0
TEXT
  8
TEXT
  5
6F9
 10
18203.5
 20
60.0
 30
-0.0
 40
24.0
  1
25400
 72
     1
 11
18203.5
 21
60.0
 31
-0.0
1001
VD_XPROPERTIES
  0
TEXT
  8
TEXT
  5
6FA
 10
18403.5
 20
60.0
 30
-0.0
 40
24.0
  1
25600
 72
     1
 11
18403.5
 21
60.0
 31
-0.0
1001
VD_XPROPERTIES
  0
TEXT
  8
TEXT
  5
6FB
 10
18603.5
 20
60.0
 30
-0.0
 40
24.0
  1
25800
 72
     1
 11
18603.5
 21
60.0
 31
-0.0
1001
VD_XPROPERTIES
  0
TEXT
  8
TEXT
  5
6FC
 10
15888.0
 20
1000.0
 30
-0.0
 40
24.0
  1
ELEVATION IN FEET (NGVD)
 50
90.0
 72
     1
 11
15888.0
 21
1000.0
 31
-0.0
1001
VD_XPROPERTIES
  0
TEXT
  8
TEXT
  5
6FD
 10
17300.0
 20
-10.0
 30
-0.0
 40
24.0
  1
STREAM DISTANCE IN FEET ABOVE SEWAGE PLANT ROAD CROSSING ADJACENT TO CORPORATE LIMITS
 72
     1
 11
17300.0
 21
-10.0
 31
-0.0
1001
VD_XPROPERTIES
  0
TEXT
  8
TEXT
  5
6FE
 10
18750.0
 20
405.0
 30
-0.0
 40
32.0
  1
FEDERAL EMERGENCY MANAGEMENT AGENCY
 50
90.0
 72
     1
 11
18750.0
 21
405.0
 31
-0.0
1001
VD_XPROPERTIES
  0
TEXT
  8
TEXT
  5
6FF
 10
18820.0
 20
405.0
 30
-0.0
 40
40.0
  1
GILA COUNTY, AZ
 50
90.0
 72
     1
 11
18820.0
 21
405.0
 31
-0.0
1001
VD_XPROPERTIES
  0
TEXT
  8
TEXT
  5
700
 10
18870.0
 20
405.0
 30
-0.0
 40
28.0
  1
(UNINCORPORATED AREAS)
 50
90.0
 72
     1
 11
18870.0
 21
405.0
 31
-0.0
1001
VD_XPROPERTIES
  0
TEXT
  8
TEXT
  5
701
 10
18768.0
 20
1365.0
 30
-0.0
 40
40.0
  1
FLOOD PROFILES
 50
90.0
 72
     1
 11
18768.0
 21
1365.0
 31
-0.0
1001
VD_XPROPERTIES
  0
TEXT
  8
TEXT
  5
702
 10
18860.0
 20
1365.0
 30
-0.0
 40
32.0
  1
PINAL CREEK (AT GLOBE)
 50
90.0
 72
     1
 11
18860.0
 21
1365.0
 31
-0.0
1001
VD_XPROPERTIES
  0
TEXT
  8
TEXT
  5
703
 10
18800.0
 20
-30.0
 30
-0.0
 40
40.0
  1
40P
 72
     1
 11
18800.0
 21
-30.0
 31
-0.0
1001
VD_XPROPERTIES
  0
POLYLINE
  8
WS100
 62
     1
  5
704
 66
     1
 10
0.0
 20
0.0
 30
0.0
1001
VDEXTRAPARAM
1071
        0
1071
        0
1071
        0
1040
1.0
1000

1000

1001
VD_XPROPERTIES
  0
VERTEX
  8
WS100
 62
     1
  5
705
 10
16000.0
 20
690.0781
 30
0.0
  0
VERTEX
  8
WS100
 62
     1
  5
706
 10
16380.5
 20
845.6006
 30
0.0
  0
VERTEX
  8
WS100
 62
     1
  5
707
 10
16380.5
 20
845.6006
 30
0.0
  0
VERTEX
  8
WS100
 62
     1
  5
708
 10
16921.9
 20
1051.602
 30
0.0
  0
VERTEX
  8
WS100
 62
     1
  5
709
 10
16921.9
 20
1051.602
 30
0.0
  0
VERTEX
  8
WS100
 62
     1
  5
70A
 10
16926.2
 20
1062.598
 30
0.0
  0
VERTEX
  8
WS100
 62
     1
  5
70B
 10
16926.2
 20
1062.598
 30
0.0
  0
VERTEX
  8
WS100
 62
     1
  5
70C
 10
17440.7
 20
1215.0
 30
0.0
  0
VERTEX
  8
WS100
 62
     1
  5
70D
 10
17440.7
 20
1215.0
 30
0.0
  0
VERTEX
  8
WS100
 62
     1
  5
70E
 10
17992.9
 20
1376.201
 30
0.0
  0
VERTEX
  8
WS100
 62
     1
  5
70F
 10
17992.9
 20
1376.201
 30
0.0
  0
VERTEX
  8
WS100
 62
     1
  5
710
 10
18030.9
 20
1427.998
 30
0.0
  0
VERTEX
  8
WS100
 62
     1
  5
711
 10
18030.9
 20
1427.998
 30
0.0
  0
VERTEX
  8
WS100
 62
     1
  5
712
 10
18032.3
 20
1456.201
 30
0.0
  0
VERTEX
  8
WS100
 62
     1
  5
713
 10
18032.3
 20
1456.201
 30
0.0
  0
VERTEX
  8
WS100
 62
     1
  5
714
 10
18035.7
 20
1457.002
 30
0.0
  0
VERTEX
  8
WS100
 62
     1
  5
715
 10
18035.7
 20
1457.002
 30
0.0
  0
VERTEX
  8
WS100
 62
     1
  5
716
 10
18036.3
 20
1457.002
 30
0.0
  0
VERTEX
  8
WS100
 62
     1
  5
717
 10
18036.3
 20
1457.002
 30
0.0
  0
VERTEX
  8
WS100
 62
     1
  5
718
 10
18088.1
 20
1467.402
 30
0.0
  0
VERTEX
  8
WS100
 62
     1
  5
719
 10
18088.1
 20
1467.402
 30
0.0
  0
VERTEX
  8
WS100
 62
     1
  5
71A
 10
18470.5
 20
1571.001
 30
0.0
  0
VERTEX
  8
WS100
 62
     1
  5
71B
 10
18600.0
 20
1613.809
 30
0.0
  0
VERTEX
  8
WS100
 62
     1
  5
71C
 10
18600.0
 20
1613.809
 30
0.0
  0
VERTEX
  8
WS100
 62
     1
  5
71D
 10
18600.0
 20
1613.809
 30
0.0
  0
SEQEND
  8
0
  5
71E
  0
INSERT
  8
ROCK
 62
     1
  5
71F
  2
ROCK
 10
16000.0
 20
507.3779
 30
0.0
 41
200.0
 42
200.0
 50
12.88223
1001
VD_XPROPERTIES
  0
INSERT
  8
ROCK
 62
     1
  5
720
  2
ROCK
 10
16380.5
 20
594.3994
 30
0.0
 41
200.0
 42
200.0
 50
21.23725
1001
VD_XPROPERTIES
  0
INSERT
  8
ROCK
 62
     1
  5
721
  2
ROCK
 10
16926.2
 20
814.3994
 30
0.0
 41
200.0
 42
200.0
 50
19.83639
1001
VD_XPROPERTIES
  0
POLYLINE
  8
STREAM
 62
     1
  5
722
 66
     1
 10
0.0
 20
0.0
 30
0.0
1001
VDEXTRAPARAM
1071
        0
1071
        0
1071
        0
1040
1.0
1000

1000

1001
VD_XPROPERTIES
  0
VERTEX
  8
STREAM
 62
     1
  5
723
 10
16000.0
 20
507.3779
 30
0.0
  0
VERTEX
  8
STREAM
 62
     1
  5
724
 10
16380.5
 20
594.3994
 30
0.0
  0
VERTEX
  8
STREAM
 62
     1
  5
725
 10
16380.5
 20
594.3994
 30
0.0
  0
VERTEX
  8
STREAM
 62
     1
  5
726
 10
16921.9
 20
804.7998
 30
0.0
  0
VERTEX
  8
STREAM
 62
     1
  5
727
 10
16921.9
 20
804.7998
 30
0.0
  0
VERTEX
  8
STREAM
 62
     1
  5
728
 10
16926.2
 20
814.3994
 30
0.0
  0
VERTEX
  8
STREAM
 62
     1
  5
729
 10
16926.2
 20
814.3994
 30
0.0
  0
VERTEX
  8
STREAM
 62
     1
  5
72A
 10
17440.7
 20
1000.0
 30
0.0
  0
VERTEX
  8
STREAM
 62
     1
  5
72B
 10
17440.7
 20
1000.0
 30
0.0
  0
VERTEX
  8
STREAM
 62
     1
  5
72C
 10
17992.9
 20
1181.802
 30
0.0
  0
VERTEX
  8
STREAM
 62
     1
  5
72D
 10
17992.9
 20
1181.802
 30
0.0
  0
VERTEX
  8
STREAM
 62
     1
  5
72E
 10
18030.9
 20
1195.801
 30
0.0
  0
VERTEX
  8
STREAM
 62
     1
  5
72F
 10
18030.9
 20
1195.801
 30
0.0
  0
VERTEX
  8
STREAM
 62
     1
  5
730
 10
18032.3
 20
1195.801
 30
0.0
  0
VERTEX
  8
STREAM
 62
     1
  5
731
 10
18032.3
 20
1195.801
 30
0.0
  0
VERTEX
  8
STREAM
 62
     1
  5
732
 10
18035.7
 20
1195.801
 30
0.0
  0
VERTEX
  8
STREAM
 62
     1
  5
733
 10
18035.7
 20
1195.801
 30
0.0
  0
VERTEX
  8
STREAM
 62
     1
  5
734
 10
18036.3
 20
1195.801
 30
0.0
  0
VERTEX
  8
STREAM
 62
     1
  5
735
 10
18036.3
 20
1195.801
 30
0.0
  0
VERTEX
  8
STREAM
 62
     1
  5
736
 10
18088.1
 20
1205.601
 30
0.0
  0
VERTEX
  8
STREAM
 62
     1
  5
737
 10
18088.1
 20
1205.601
 30
0.0
  0
VERTEX
  8
STREAM
 62
     1
  5
738
 10
18470.5
 20
1287.998
 30
0.0
  0
VERTEX
  8
STREAM
 62
     1
  5
739
 10
18600.0
 20
1353.413
 30
0.0
  0
VERTEX
  8
STREAM
 62
     1
  5
73A
 10
18600.0
 20
1353.413
 30
0.0
  0
SEQEND
  8
0
  5
73B
  0
INSERT
  8
XSEC
 62
     3
  5
73C
  2
XSEC
 10
16921.9
 20
170.0
 30
0.0
 41
200.0
 42
200.0
1001
VD_XPROPERTIES
  0
TEXT
  8
TEXT
  5
73D
 10
16921.9
 20
170.0
 30
-0.0
 40
20.0
  1
AP
 72
     1
 11
16921.9
 21
170.0
 31
-0.0
 73
     2
1001
VD_XPROPERTIES
  0
INSERT
  8
XSEC
 62
     3
  5
73E
  2
XSEC
 10
18036.3
 20
570.0
 30
0.0
 41
200.0
 42
200.0
1001
VD_XPROPERTIES
  0
TEXT
  8
TEXT
  5
73F
 10
18036.3
 20
570.0
 30
-0.0
 40
20.0
  1
AQ
 72
     1
 11
18036.3
 21
570.0
 31
-0.0
 73
     2
1001
VD_XPROPERTIES
  0
LINE
  8
BRIDGE
 62
     1
  5
740
 10
18034.0
 20
1397.09
 30
0.0
 11
18034.0
 21
1417.09
 31
0.0
1001
VD_XPROPERTIES
  0
INSERT
  8
BRIDGE
 62
     1
  5
741
  2
BAR
 10
18034.0
 20
1397.09
 30
0.0
 41
200.0
 42
200.0
1001
VD_XPROPERTIES
  0
INSERT
  8
BRIDGE
 62
     1
  5
742
  2
BAR
 10
18034.0
 20
1417.09
 30
0.0
 41
200.0
 42
200.0
1001
VD_XPROPERTIES
  0
POLYLINE
  8
XSECTEXTLINE
  5
743
 66
     1
 10
0.0
 20
0.0
 30
0.0
1001
VDEXTRAPARAM
1071
        0
1071
        0
1071
        0
1040
1.0
1000

1000

1001
VD_XPROPERTIES
  0
VERTEX
  8
XSECTEXTLINE
  5
744
 10
18035.7
 20
1500.0
 30
0.0
  0
VERTEX
  8
XSECTEXTLINE
  5
745
 10
18035.7
 20
1700.0
 30
0.0
  0
VERTEX
  8
XSECTEXTLINE
  5
746
 10
18035.7
 20
1700.0
 30
0.0
  0
SEQEND
  8
0
  5
747
  0
TEXT
  8
TEXT
  5
748
 10
18025.7
 20
1600.0
 30
-0.0
 40
24.0
  1
FOOTBRIDGE
 50
90.0
 72
     1
 11
18025.7
 21
1600.0
 31
-0.0
1001
VD_XPROPERTIES
  0
POLYLINE
  8
LEGEND_BOX
  5
749
 66
     1
 10
0.0
 20
0.0
 30
0.0
1001
VDEXTRAPARAM
1071
        0
1071
        0
1071
        0
1040
1.0
1000

1000

1001
VD_XPROPERTIES
  0
VERTEX
  8
LEGEND_BOX
  5
74A
 10
18010.0
 20
490.0
 30
0.0
  0
VERTEX
  8
LEGEND_BOX
  5
74B
 10
18010.0
 20
110.0
 30
0.0
  0
VERTEX
  8
LEGEND_BOX
  5
74C
 10
18590.0
 20
110.0
 30
0.0
  0
VERTEX
  8
LEGEND_BOX
  5
74D
 10
18590.0
 20
490.0
 30
0.0
  0
VERTEX
  8
LEGEND_BOX
  5
74E
 10
18010.0
 20
490.0
 30
0.0
  0
VERTEX
  8
LEGEND_BOX
  5
74F
 10
18010.0
 20
490.0
 30
0.0
  0
SEQEND
  8
0
  5
750
  0
TEXT
  8
TEXT
  5
751
 10
18310.0
 20
450.0
 30
-0.0
 40
20.0
  1
LEGEND
 72
     1
 11
18310.0
 21
450.0
 31
-0.0
1001
VD_XPROPERTIES
  0
POLYLINE
  8
WS500
 62
     3
  5
752
 66
     1
 10
0.0
 20
0.0
 30
0.0
1001
VDEXTRAPARAM
1071
        0
1071
        0
1071
        0
1040
1.0
1000

1000

1001
VD_XPROPERTIES
  0
VERTEX
  8
WS500
 62
     3
  5
753
 10
18060.0
 20
420.0
 30
0.0
  0
VERTEX
  8
WS500
 62
     3
  5
754
 10
18280.0
 20
420.0
 30
0.0
  0
VERTEX
  8
WS500
 62
     3
  5
755
 10
18280.0
 20
420.0
 30
0.0
  0
SEQEND
  8
0
  5
756
  0
TEXT
  8
TEXT
  5
757
 10
18330.0
 20
410.0
 30
0.0
 40
20.0
  1
500-YEAR FLOOD
1001
VD_XPROPERTIES
  0
POLYLINE
  8
WS100
 62
     1
  5
758
 66
     1
 10
0.0
 20
0.0
 30
0.0
1001
VDEXTRAPARAM
1071
        0
1071
        0
1071
        0
1040
1.0
1000

1000

1001
VD_XPROPERTIES
  0
VERTEX
  8
WS100
 62
     1
  5
759
 10
18060.0
 20
370.0
 30
0.0
  0
VERTEX
  8
WS100
 62
     1
  5
75A
 10
18280.0
 20
370.0
 30
0.0
  0
VERTEX
  8
WS100
 62
     1
  5
75B
 10
18280.0
 20
370.0
 30
0.0
  0
SEQEND
  8
0
  5
75C
  0
TEXT
  8
TEXT
  5
75D
 10
18330.0
 20
360.0
 30
0.0
 40
20.0
  1
100-YEAR FLOOD
1001
VD_XPROPERTIES
  0
POLYLINE
  8
WS50
 62
     5
  5
75E
 66
     1
 10
0.0
 20
0.0
 30
0.0
1001
VDEXTRAPARAM
1071
        0
1071
        0
1071
        0
1040
1.0
1000

1000

1001
VD_XPROPERTIES
  0
VERTEX
  8
WS50
 62
     5
  5
75F
 10
18060.0
 20
320.0
 30
0.0
  0
VERTEX
  8
WS50
 62
     5
  5
760
 10
18280.0
 20
320.0
 30
0.0
  0
VERTEX
  8
WS50
 62
     5
  5
761
 10
18280.0
 20
320.0
 30
0.0
  0
SEQEND
  8
0
  5
762
  0
TEXT
  8
TEXT
  5
763
 10
18330.0
 20
310.0
 30
0.0
 40
20.0
  1
50-YEAR FLOOD
1001
VD_XPROPERTIES
  0
POLYLINE
  8
WS10
 62
     6
  5
764
 66
     1
 10
0.0
 20
0.0
 30
0.0
1001
VDEXTRAPARAM
1071
        0
1071
        0
1071
        0
1040
1.0
1000

1000

1001
VD_XPROPERTIES
  0
VERTEX
  8
WS10
 62
     6
  5
765
 10
18060.0
 20
270.0
 30
0.0
  0
VERTEX
  8
WS10
 62
     6
  5
766
 10
18280.0
 20
270.0
 30
0.0
  0
VERTEX
  8
WS10
 62
     6
  5
767
 10
18280.0
 20
270.0
 30
0.0
  0
SEQEND
  8
0
  5
768
  0
TEXT
  8
TEXT
  5
769
 10
18330.0
 20
260.0
 30
0.0
 40
20.0
  1
10-YEAR FLOOD
1001
VD_XPROPERTIES
  0
POLYLINE
  8
STREAM
 62
     1
  5
76A
 66
     1
 10
0.0
 20
0.0
 30
0.0
1001
VDEXTRAPARAM
1071
        0
1071
        0
1071
        0
1040
1.0
1000

1000

1001
VD_XPROPERTIES
  0
VERTEX
  8
STREAM
 62
     1
  5
76B
 10
18060.0
 20
230.0
 30
0.0
  0
VERTEX
  8
STREAM
 62
     1
  5
76C
 10
18280.0
 20
230.0
 30
0.0
  0
VERTEX
  8
STREAM
 62
     1
  5
76D
 10
18280.0
 20
230.0
 30
0.0
  0
SEQEND
  8
0
  5
76E
  0
TEXT
  8
TEXT
  5
76F
 10
18330.0
 20
210.0
 30
0.0
 40
20.0
  1
STREAM BED
1001
VD_XPROPERTIES
  0
INSERT
  8
ROCK
 62
     1
  5
770
  2
ROCK
 10
18060.0
 20
229.7998
 30
0.0
 41
200.0
 42
200.0
1001
VD_XPROPERTIES
  0
TEXT
  8
TEXT
  5
771
 10
18330.0
 20
160.0
 30
0.0
 40
20.0
  1
CROSS SECTION
1001
VD_XPROPERTIES
  0
TEXT
  8
TEXT
  5
772
 10
18332.0
 20
136.665
 30
0.0
 40
20.0
  1
LOCATION
1001
VD_XPROPERTIES
  0
POLYLINE
  8
LEGEND_XSEC
  5
773
 66
     1
 10
0.0
 20
0.0
 30
0.0
1001
VDEXTRAPARAM
1071
        0
1071
        0
1071
        0
1040
1.0
1000

1000

1001
VD_XPROPERTIES
  0
VERTEX
  8
LEGEND_XSEC
  5
774
 10
18170.0
 20
180.0
 30
0.0
  0
VERTEX
  8
LEGEND_XSEC
  5
775
 10
18144.02
 20
165.0
 30
0.0
  0
VERTEX
  8
LEGEND_XSEC
  5
776
 10
18144.02
 20
135.0
 30
0.0
  0
VERTEX
  8
LEGEND_XSEC
  5
777
 10
18170.0
 20
120.0
 30
0.0
  0
VERTEX
  8
LEGEND_XSEC
  5
778
 10
18195.98
 20
135.0
 30
0.0
  0
VERTEX
  8
LEGEND_XSEC
  5
779
 10
18195.98
 20
165.0
 30
0.0
  0
VERTEX
  8
LEGEND_XSEC
  5
77A
 10
18170.0
 20
180.0
 30
0.0
  0
VERTEX
  8
LEGEND_XSEC
  5
77B
 10
18170.0
 20
190.0
 30
0.0
  0
VERTEX
  8
LEGEND_XSEC
  5
77C
 10
18170.0
 20
190.0
 30
0.0
  0
SEQEND
  8
0
  5
77D
  0
INSERT
  8
GRIDS
  5
77E
  2
BORDER
 10
0.0
 20
2900.0
 30
0.0
 41
200.0
 42
200.0
1001
VD_XPROPERTIES
  0
TEXT
  8
TEXT
  5
77F
 10
-65.0
 20
2891.0
 30
0.0
 40
24.0
  1
 3680
1001
VD_XPROPERTIES
  0
TEXT
  8
TEXT
  5
780
 10
-65.0
 20
3091.0
 30
0.0
 40
24.0
  1
 3690
1001
VD_XPROPERTIES
  0
TEXT
  8
TEXT
  5
781
 10
-65.0
 20
3291.0
 30
0.0
 40
24.0
  1
 3700
1001
VD_XPROPERTIES
  0
TEXT
  8
TEXT
  5
782
 10
2625.0
 20
3291.0
 30
0.0
 40
24.0
  1
 3700
1001
VD_XPROPERTIES
  0
TEXT
  8
TEXT
  5
783
 10
-65.0
 20
3491.0
 30
0.0
 40
24.0
  1
 3710
1001
VD_XPROPERTIES
  0
TEXT
  8
TEXT
  5
784
 10
2625.0
 20
3491.0
 30
0.0
 40
24.0
  1
 3710
1001
VD_XPROPERTIES
  0
TEXT
  8
TEXT
  5
785
 10
-65.0
 20
3691.0
 30
0.0
 40
24.0
  1
 3720
1001
VD_XPROPERTIES
  0
TEXT
  8
TEXT
  5
786
 10
2625.0
 20
3691.0
 30
0.0
 40
24.0
  1
 3720
1001
VD_XPROPERTIES
  0
TEXT
  8
TEXT
  5
787
 10
-65.0
 20
3891.0
 30
0.0
 40
24.0
  1
 3730
1001
VD_XPROPERTIES
  0
TEXT
  8
TEXT
  5
788
 10
2625.0
 20
3891.0
 30
0.0
 40
24.0
  1
 3730
1001
VD_XPROPERTIES
  0
TEXT
  8
TEXT
  5
789
 10
-65.0
 20
4091.0
 30
0.0
 40
24.0
  1
 3740
1001
VD_XPROPERTIES
  0
TEXT
  8
TEXT
  5
78A
 10
2625.0
 20
4091.0
 30
0.0
 40
24.0
  1
 3740
1001
VD_XPROPERTIES
  0
TEXT
  8
TEXT
  5
78B
 10
-65.0
 20
4291.0
 30
0.0
 40
24.0
  1
 3750
1001
VD_XPROPERTIES
  0
TEXT
  8
TEXT
  5
78C
 10
2625.0
 20
4291.0
 30
0.0
 40
24.0
  1
 3750
1001
VD_XPROPERTIES
  0
TEXT
  8
TEXT
  5
78D
 10
-65.0
 20
4491.0
 30
0.0
 40
24.0
  1
 3760
1001
VD_XPROPERTIES
  0
TEXT
  8
TEXT
  5
78E
 10
2625.0
 20
4491.0
 30
0.0
 40
24.0
  1
 3760
1001
VD_XPROPERTIES
  0
TEXT
  8
TEXT
  5
78F
 10
-65.0
 20
4691.0
 30
0.0
 40
24.0
  1
 3770
1001
VD_XPROPERTIES
  0
TEXT
  8
TEXT
  5
790
 10
2625.0
 20
4691.0
 30
0.0
 40
24.0
  1
 3770
1001
VD_XPROPERTIES
  0
TEXT
  8
TEXT
  5
791
 10
3.5
 20
2860.0
 30
-0.0
 40
24.0
  1
25800
 72
     1
 11
3.5
 21
2860.0
 31
-0.0
1001
VD_XPROPERTIES
  0
TEXT
  8
TEXT
  5
792
 10
203.5
 20
2860.0
 30
-0.0
 40
24.0
  1
26000
 72
     1
 11
203.5
 21
2860.0
 31
-0.0
1001
VD_XPROPERTIES
  0
TEXT
  8
TEXT
  5
793
 10
403.5
 20
2860.0
 30
-0.0
 40
24.0
  1
26200
 72
     1
 11
403.5
 21
2860.0
 31
-0.0
1001
VD_XPROPERTIES
  0
TEXT
  8
TEXT
  5
794
 10
603.5
 20
2860.0
 30
-0.0
 40
24.0
  1
26400
 72
     1
 11
603.5
 21
2860.0
 31
-0.0
1001
VD_XPROPERTIES
  0
TEXT
  8
TEXT
  5
795
 10
803.5
 20
2860.0
 30
-0.0
 40
24.0
  1
26600
 72
     1
 11
803.5
 21
2860.0
 31
-0.0
1001
VD_XPROPERTIES
  0
TEXT
  8
TEXT
  5
796
 10
1003.5
 20
2860.0
 30
-0.0
 40
24.0
  1
26800
 72
     1
 11
1003.5
 21
2860.0
 31
-0.0
1001
VD_XPROPERTIES
  0
TEXT
  8
TEXT
  5
797
 10
1203.5
 20
2860.0
 30
-0.0
 40
24.0
  1
27000
 72
     1
 11
1203.5
 21
2860.0
 31
-0.0
1001
VD_XPROPERTIES
  0
TEXT
  8
TEXT
  5
798
 10
1403.5
 20
2860.0
 30
-0.0
 40
24.0
  1
27200
 72
     1
 11
1403.5
 21
2860.0
 31
-0.0
1001
VD_XPROPERTIES
  0
TEXT
  8
TEXT
  5
799
 10
1603.5
 20
2860.0
 30
-0.0
 40
24.0
  1
27400
 72
     1
 11
1603.5
 21
2860.0
 31
-0.0
1001
VD_XPROPERTIES
  0
TEXT
  8
TEXT
  5
79A
 10
1803.5
 20
2860.0
 30
-0.0
 40
24.0
  1
27600
 72
     1
 11
1803.5
 21
2860.0
 31
-0.0
1001
VD_XPROPERTIES
  0
TEXT
  8
TEXT
  5
79B
 10
2003.5
 20
2860.0
 30
-0.0
 40
24.0
  1
27800
 72
     1
 11
2003.5
 21
2860.0
 31
-0.0
1001
VD_XPROPERTIES
  0
TEXT
  8
TEXT
  5
79C
 10
2203.5
 20
2860.0
 30
-0.0
 40
24.0
  1
28000
 72
     1
 11
2203.5
 21
2860.0
 31
-0.0
1001
VD_XPROPERTIES
  0
TEXT
  8
TEXT
  5
79D
 10
2403.5
 20
2860.0
 30
-0.0
 40
24.0
  1
28200
 72
     1
 11
2403.5
 21
2860.0
 31
-0.0
1001
VD_XPROPERTIES
  0
TEXT
  8
TEXT
  5
79E
 10
2603.5
 20
2860.0
 30
-0.0
 40
24.0
  1
28400
 72
     1
 11
2603.5
 21
2860.0
 31
-0.0
1001
VD_XPROPERTIES
  0
TEXT
  8
TEXT
  5
79F
 10
-112.0
 20
3800.0
 30
-0.0
 40
24.0
  1
ELEVATION IN FEET (NGVD)
 50
90.0
 72
     1
 11
-112.0
 21
3800.0
 31
-0.0
1001
VD_XPROPERTIES
  0
TEXT
  8
TEXT
  5
7A0
 10
1300.0
 20
2790.0
 30
-0.0
 40
24.0
  1
STREAM DISTANCE IN FEET ABOVE SEWAGE PLANT ROAD CROSSING ADJACENT TO CORPORATE LIMITS
 72
     1
 11
1300.0
 21
2790.0
 31
-0.0
1001
VD_XPROPERTIES
  0
TEXT
  8
TEXT
  5
7A1
 10
2750.0
 20
3205.0
 30
-0.0
 40
32.0
  1
FEDERAL EMERGENCY MANAGEMENT AGENCY
 50
90.0
 72
     1
 11
2750.0
 21
3205.0
 31
-0.0
1001
VD_XPROPERTIES
  0
TEXT
  8
TEXT
  5
7A2
 10
2820.0
 20
3205.0
 30
-0.0
 40
40.0
  1
GILA COUNTY, AZ
 50
90.0
 72
     1
 11
2820.0
 21
3205.0
 31
-0.0
1001
VD_XPROPERTIES
  0
TEXT
  8
TEXT
  5
7A3
 10
2870.0
 20
3205.0
 30
-0.0
 40
28.0
  1
(UNINCORPORATED AREAS)
 50
90.0
 72
     1
 11
2870.0
 21
3205.0
 31
-0.0
1001
VD_XPROPERTIES
  0
TEXT
  8
TEXT
  5
7A4
 10
2768.0
 20
4165.0
 30
-0.0
 40
40.0
  1
FLOOD PROFILES
 50
90.0
 72
     1
 11
2768.0
 21
4165.0
 31
-0.0
1001
VD_XPROPERTIES
  0
TEXT
  8
TEXT
  5
7A5
 10
2860.0
 20
4165.0
 30
-0.0
 40
32.0
  1
PINAL CREEK (AT GLOBE)
 50
90.0
 72
     1
 11
2860.0
 21
4165.0
 31
-0.0
1001
VD_XPROPERTIES
  0
TEXT
  8
TEXT
  5
7A6
 10
2800.0
 20
2770.0
 30
-0.0
 40
40.0
  1
41P
 72
     1
 11
2800.0
 21
2770.0
 31
-0.0
1001
VD_XPROPERTIES
  0
POLYLINE
  8
WS100
 62
     1
  5
7A7
 66
     1
 10
0.0
 20
0.0
 30
0.0
1001
VDEXTRAPARAM
1071
        0
1071
        0
1071
        0
1040
1.0
1000

1000

1001
VD_XPROPERTIES
  0
VERTEX
  8
WS100
 62
     1
  5
7A8
 10
0.0
 20
3413.809
 30
0.0
  0
VERTEX
  8
WS100
 62
     1
  5
7A9
 10
270.4004
 20
3503.198
 30
0.0
  0
VERTEX
  8
WS100
 62
     1
  5
7AA
 10
270.4004
 20
3503.198
 30
0.0
  0
VERTEX
  8
WS100
 62
     1
  5
7AB
 10
319.7012
 20
3503.198
 30
0.0
  0
VERTEX
  8
WS100
 62
     1
  5
7AC
 10
319.7012
 20
3503.198
 30
0.0
  0
VERTEX
  8
WS100
 62
     1
  5
7AD
 10
325.4004
 20
3519.199
 30
0.0
  0
VERTEX
  8
WS100
 62
     1
  5
7AE
 10
325.4004
 20
3519.199
 30
0.0
  0
VERTEX
  8
WS100
 62
     1
  5
7AF
 10
336.9004
 20
3519.199
 30
0.0
  0
VERTEX
  8
WS100
 62
     1
  5
7B0
 10
336.9004
 20
3519.199
 30
0.0
  0
VERTEX
  8
WS100
 62
     1
  5
7B1
 10
339.9004
 20
3519.199
 30
0.0
  0
VERTEX
  8
WS100
 62
     1
  5
7B2
 10
339.9004
 20
3519.199
 30
0.0
  0
VERTEX
  8
WS100
 62
     1
  5
7B3
 10
374.4004
 20
3584.199
 30
0.0
  0
VERTEX
  8
WS100
 62
     1
  5
7B4
 10
374.4004
 20
3584.199
 30
0.0
  0
VERTEX
  8
WS100
 62
     1
  5
7B5
 10
870.0
 20
3745.2
 30
0.0
  0
VERTEX
  8
WS100
 62
     1
  5
7B6
 10
870.0
 20
3745.2
 30
0.0
  0
VERTEX
  8
WS100
 62
     1
  5
7B7
 10
1353.199
 20
3871.602
 30
0.0
  0
VERTEX
  8
WS100
 62
     1
  5
7B8
 10
1353.199
 20
3871.602
 30
0.0
  0
VERTEX
  8
WS100
 62
     1
  5
7B9
 10
1906.1
 20
4097.598
 30
0.0
  0
VERTEX
  8
WS100
 62
     1
  5
7BA
 10
1906.1
 20
4097.598
 30
0.0
  0
VERTEX
  8
WS100
 62
     1
  5
7BB
 10
1938.9
 20
4138.999
 30
0.0
  0
VERTEX
  8
WS100
 62
     1
  5
7BC
 10
1938.9
 20
4138.999
 30
0.0
  0
VERTEX
  8
WS100
 62
     1
  5
7BD
 10
1942.301
 20
4159.6
 30
0.0
  0
VERTEX
  8
WS100
 62
     1
  5
7BE
 10
1942.301
 20
4159.6
 30
0.0
  0
VERTEX
  8
WS100
 62
     1
  5
7BF
 10
1967.0
 20
4168.398
 30
0.0
  0
VERTEX
  8
WS100
 62
     1
  5
7C0
 10
1967.0
 20
4168.398
 30
0.0
  0
VERTEX
  8
WS100
 62
     1
  5
7C1
 10
1970.1
 20
4168.398
 30
0.0
  0
VERTEX
  8
WS100
 62
     1
  5
7C2
 10
1970.1
 20
4168.398
 30
0.0
  0
VERTEX
  8
WS100
 62
     1
  5
7C3
 10
2002.699
 20
4177.202
 30
0.0
  0
VERTEX
  8
WS100
 62
     1
  5
7C4
 10
2002.699
 20
4177.202
 30
0.0
  0
VERTEX
  8
WS100
 62
     1
  5
7C5
 10
2522.199
 20
4341.201
 30
0.0
  0
VERTEX
  8
WS100
 62
     1
  5
7C6
 10
2600.0
 20
4368.379
 30
0.0
  0
VERTEX
  8
WS100
 62
     1
  5
7C7
 10
2600.0
 20
4368.379
 30
0.0
  0
VERTEX
  8
WS100
 62
     1
  5
7C8
 10
2600.0
 20
4368.379
 30
0.0
  0
SEQEND
  8
0
  5
7C9
  0
INSERT
  8
ROCK
 62
     1
  5
7CA
  2
ROCK
 10
0.0
 20
3153.413
 30
0.0
 41
200.0
 42
200.0
 50
26.79964
1001
VD_XPROPERTIES
  0
INSERT
  8
ROCK
 62
     1
  5
7CB
  2
ROCK
 10
374.4004
 20
3334.8
 30
0.0
 41
200.0
 42
200.0
 50
23.85938
1001
VD_XPROPERTIES
  0
INSERT
  8
ROCK
 62
     1
  5
7CC
  2
ROCK
 10
870.0
 20
3553.999
 30
0.0
 41
200.0
 42
200.0
 50
14.92541
1001
VD_XPROPERTIES
  0
POLYLINE
  8
STREAM
 62
     1
  5
7CD
 66
     1
 10
0.0
 20
0.0
 30
0.0
1001
VDEXTRAPARAM
1071
        0
1071
        0
1071
        0
1040
1.0
1000

1000

1001
VD_XPROPERTIES
  0
VERTEX
  8
STREAM
 62
     1
  5
7CE
 10
0.0
 20
3153.413
 30
0.0
  0
VERTEX
  8
STREAM
 62
     1
  5
7CF
 10
270.4004
 20
3290.0
 30
0.0
  0
VERTEX
  8
STREAM
 62
     1
  5
7D0
 10
270.4004
 20
3290.0
 30
0.0
  0
VERTEX
  8
STREAM
 62
     1
  5
7D1
 10
319.7012
 20
3291.401
 30
0.0
  0
VERTEX
  8
STREAM
 62
     1
  5
7D2
 10
319.7012
 20
3291.401
 30
0.0
  0
VERTEX
  8
STREAM
 62
     1
  5
7D3
 10
325.4004
 20
3292.998
 30
0.0
  0
VERTEX
  8
STREAM
 62
     1
  5
7D4
 10
325.4004
 20
3292.998
 30
0.0
  0
VERTEX
  8
STREAM
 62
     1
  5
7D5
 10
336.9004
 20
3318.799
 30
0.0
  0
VERTEX
  8
STREAM
 62
     1
  5
7D6
 10
336.9004
 20
3318.799
 30
0.0
  0
VERTEX
  8
STREAM
 62
     1
  5
7D7
 10
339.9004
 20
3318.799
 30
0.0
  0
VERTEX
  8
STREAM
 62
     1
  5
7D8
 10
339.9004
 20
3318.799
 30
0.0
  0
VERTEX
  8
STREAM
 62
     1
  5
7D9
 10
374.4004
 20
3334.8
 30
0.0
  0
VERTEX
  8
STREAM
 62
     1
  5
7DA
 10
374.4004
 20
3334.8
 30
0.0
  0
VERTEX
  8
STREAM
 62
     1
  5
7DB
 10
870.0
 20
3553.999
 30
0.0
  0
VERTEX
  8
STREAM
 62
     1
  5
7DC
 10
870.0
 20
3553.999
 30
0.0
  0
VERTEX
  8
STREAM
 62
     1
  5
7DD
 10
1353.199
 20
3682.798
 30
0.0
  0
VERTEX
  8
STREAM
 62
     1
  5
7DE
 10
1353.199
 20
3682.798
 30
0.0
  0
VERTEX
  8
STREAM
 62
     1
  5
7DF
 10
1906.1
 20
3893.599
 30
0.0
  0
VERTEX
  8
STREAM
 62
     1
  5
7E0
 10
1906.1
 20
3893.599
 30
0.0
  0
VERTEX
  8
STREAM
 62
     1
  5
7E1
 10
1938.9
 20
3986.401
 30
0.0
  0
VERTEX
  8
STREAM
 62
     1
  5
7E2
 10
1938.9
 20
3986.401
 30
0.0
  0
VERTEX
  8
STREAM
 62
     1
  5
7E3
 10
1942.301
 20
3986.001
 30
0.0
  0
VERTEX
  8
STREAM
 62
     1
  5
7E4
 10
1942.301
 20
3986.001
 30
0.0
  0
VERTEX
  8
STREAM
 62
     1
  5
7E5
 10
1967.0
 20
3993.999
 30
0.0
  0
VERTEX
  8
STREAM
 62
     1
  5
7E6
 10
1967.0
 20
3993.999
 30
0.0
  0
VERTEX
  8
STREAM
 62
     1
  5
7E7
 10
1970.1
 20
3995.2
 30
0.0
  0
VERTEX
  8
STREAM
 62
     1
  5
7E8
 10
1970.1
 20
3995.2
 30
0.0
  0
VERTEX
  8
STREAM
 62
     1
  5
7E9
 10
2002.699
 20
3997.998
 30
0.0
  0
VERTEX
  8
STREAM
 62
     1
  5
7EA
 10
2002.699
 20
3997.998
 30
0.0
  0
VERTEX
  8
STREAM
 62
     1
  5
7EB
 10
2522.199
 20
4171.401
 30
0.0
  0
VERTEX
  8
STREAM
 62
     1
  5
7EC
 10
2600.0
 20
4200.547
 30
0.0
  0
VERTEX
  8
STREAM
 62
     1
  5
7ED
 10
2600.0
 20
4200.547
 30
0.0
  0
SEQEND
  8
0
  5
7EE
  0
INSERT
  8
XSEC
 62
     3
  5
7EF
  2
XSEC
 10
339.9004
 20
2970.0
 30
0.0
 41
200.0
 42
200.0
1001
VD_XPROPERTIES
  0
TEXT
  8
TEXT
  5
7F0
 10
339.9004
 20
2970.0
 30
-0.0
 40
20.0
  1
AR
 72
     1
 11
339.9004
 21
2970.0
 31
-0.0
 73
     2
1001
VD_XPROPERTIES
  0
INSERT
  8
XSEC
 62
     3
  5
7F1
  2
XSEC
 10
2002.699
 20
3370.0
 30
0.0
 41
200.0
 42
200.0
1001
VD_XPROPERTIES
  0
TEXT
  8
TEXT
  5
7F2
 10
2002.699
 20
3370.0
 30
-0.0
 40
20.0
  1
AS
 72
     1
 11
2002.699
 21
3370.0
 31
-0.0
 73
     2
1001
VD_XPROPERTIES
  0
LINE
  8
BRIDGE
 62
     1
  5
7F3
 10
331.1504
 20
3487.314
 30
0.0
 11
331.1504
 21
3517.314
 31
0.0
1001
VD_XPROPERTIES
  0
INSERT
  8
BRIDGE
 62
     1
  5
7F4
  2
BAR
 10
331.1504
 20
3487.314
 30
0.0
 41
200.0
 42
200.0
1001
VD_XPROPERTIES
  0
INSERT
  8
BRIDGE
 62
     1
  5
7F5
  2
BAR
 10
331.1504
 20
3517.314
 30
0.0
 41
200.0
 42
200.0
1001
VD_XPROPERTIES
  0
POLYLINE
  8
CULVERT
  5
7F6
 66
     1
 10
0.0
 20
0.0
 30
0.0
1001
VDEXTRAPARAM
1071
       11
1071
        0
1071
      255
1040
20.0
1000
CULVERT
1000
 
1001
VD_XPROPERTIES
  0
VERTEX
  8
CULVERT
  5
7F7
 10
1942.301
 20
4066.001
 30
0.0
  0
VERTEX
  8
CULVERT
  5
7F8
 10
1942.301
 20
4106.401
 30
0.0
  0
VERTEX
  8
CULVERT
  5
7F9
 10
1967.0
 20
4115.2
 30
0.0
  0
VERTEX
  8
CULVERT
  5
7FA
 10
1967.0
 20
4073.999
 30
0.0
  0
VERTEX
  8
CULVERT
  5
7FB
 10
1942.301
 20
4066.001
 30
0.0
  0
SEQEND
  8
0
  5
7FC
  0
POLYLINE
  8
XSECTEXTLINE
  5
7FE
 66
     1
 10
0.0
 20
0.0
 30
0.0
1001
VDEXTRAPARAM
1071
        0
1071
        0
1071
        0
1040
1.0
1000

1000

1001
VD_XPROPERTIES
  0
VERTEX
  8
XSECTEXTLINE
  5
7FF
 10
336.9004
 20
4300.0
 30
0.0
  0
VERTEX
  8
XSECTEXTLINE
  5
800
 10
336.9004
 20
4500.0
 30
0.0
  0
VERTEX
  8
XSECTEXTLINE
  5
801
 10
336.9004
 20
4500.0
 30
0.0
  0
SEQEND
  8
0
  5
802
  0
TEXT
  8
TEXT
  5
803
 10
326.9004
 20
4400.0
 30
-0.0
 40
24.0
  1
PRIVATE DRIVE
 50
90.0
 72
     1
 11
326.9004
 21
4400.0
 31
-0.0
1001
VD_XPROPERTIES
  0
POLYLINE
  8
XSECTEXTLINE
  5
804
 66
     1
 10
0.0
 20
0.0
 30
0.0
1001
VDEXTRAPARAM
1071
        0
1071
        0
1071
        0
1040
1.0
1000

1000

1001
VD_XPROPERTIES
  0
VERTEX
  8
XSECTEXTLINE
  5
805
 10
1967.0
 20
4300.0
 30
0.0
  0
VERTEX
  8
XSECTEXTLINE
  5
806
 10
1967.0
 20
4500.0
 30
0.0
  0
VERTEX
  8
XSECTEXTLINE
  5
807
 10
1967.0
 20
4500.0
 30
0.0
  0
SEQEND
  8
0
  5
808
  0
TEXT
  8
TEXT
  5
809
 10
1957.0
 20
4400.0
 30
-0.0
 40
24.0
  1
SIX SHOOTER CANYON ROAD
 50
90.0
 72
     1
 11
1957.0
 21
4400.0
 31
-0.0
1001
VD_XPROPERTIES
  0
POLYLINE
  8
LEGEND_BOX
  5
80A
 66
     1
 10
0.0
 20
0.0
 30
0.0
1001
VDEXTRAPARAM
1071
        0
1071
        0
1071
        0
1040
1.0
1000

1000

1001
VD_XPROPERTIES
  0
VERTEX
  8
LEGEND_BOX
  5
80B
 10
2010.0
 20
3290.0
 30
0.0
  0
VERTEX
  8
LEGEND_BOX
  5
80C
 10
2010.0
 20
2910.0
 30
0.0
  0
VERTEX
  8
LEGEND_BOX
  5
80D
 10
2590.0
 20
2910.0
 30
0.0
  0
VERTEX
  8
LEGEND_BOX
  5
80E
 10
2590.0
 20
3290.0
 30
0.0
  0
VERTEX
  8
LEGEND_BOX
  5
80F
 10
2010.0
 20
3290.0
 30
0.0
  0
VERTEX
  8
LEGEND_BOX
  5
810
 10
2010.0
 20
3290.0
 30
0.0
  0
SEQEND
  8
0
  5
811
  0
TEXT
  8
TEXT
  5
812
 10
2310.0
 20
3250.0
 30
-0.0
 40
20.0
  1
LEGEND
 72
     1
 11
2310.0
 21
3250.0
 31
-0.0
1001
VD_XPROPERTIES
  0
POLYLINE
  8
WS500
 62
     3
  5
813
 66
     1
 10
0.0
 20
0.0
 30
0.0
1001
VDEXTRAPARAM
1071
        0
1071
        0
1071
        0
1040
1.0
1000

1000

1001
VD_XPROPERTIES
  0
VERTEX
  8
WS500
 62
     3
  5
814
 10
2060.0
 20
3220.0
 30
0.0
  0
VERTEX
  8
WS500
 62
     3
  5
815
 10
2280.0
 20
3220.0
 30
0.0
  0
VERTEX
  8
WS500
 62
     3
  5
816
 10
2280.0
 20
3220.0
 30
0.0
  0
SEQEND
  8
0
  5
817
  0
TEXT
  8
TEXT
  5
818
 10
2330.0
 20
3210.0
 30
0.0
 40
20.0
  1
500-YEAR FLOOD
1001
VD_XPROPERTIES
  0
POLYLINE
  8
WS100
 62
     1
  5
819
 66
     1
 10
0.0
 20
0.0
 30
0.0
1001
VDEXTRAPARAM
1071
        0
1071
        0
1071
        0
1040
1.0
1000

1000

1001
VD_XPROPERTIES
  0
VERTEX
  8
WS100
 62
     1
  5
81A
 10
2060.0
 20
3170.0
 30
0.0
  0
VERTEX
  8
WS100
 62
     1
  5
81B
 10
2280.0
 20
3170.0
 30
0.0
  0
VERTEX
  8
WS100
 62
     1
  5
81C
 10
2280.0
 20
3170.0
 30
0.0
  0
SEQEND
  8
0
  5
81D
  0
TEXT
  8
TEXT
  5
81E
 10
2330.0
 20
3160.0
 30
0.0
 40
20.0
  1
100-YEAR FLOOD
1001
VD_XPROPERTIES
  0
POLYLINE
  8
WS50
 62
     5
  5
81F
 66
     1
 10
0.0
 20
0.0
 30
0.0
1001
VDEXTRAPARAM
1071
        0
1071
        0
1071
        0
1040
1.0
1000

1000

1001
VD_XPROPERTIES
  0
VERTEX
  8
WS50
 62
     5
  5
820
 10
2060.0
 20
3120.0
 30
0.0
  0
VERTEX
  8
WS50
 62
     5
  5
821
 10
2280.0
 20
3120.0
 30
0.0
  0
VERTEX
  8
WS50
 62
     5
  5
822
 10
2280.0
 20
3120.0
 30
0.0
  0
SEQEND
  8
0
  5
823
  0
TEXT
  8
TEXT
  5
824
 10
2330.0
 20
3110.0
 30
0.0
 40
20.0
  1
50-YEAR FLOOD
1001
VD_XPROPERTIES
  0
POLYLINE
  8
WS10
 62
     6
  5
825
 66
     1
 10
0.0
 20
0.0
 30
0.0
1001
VDEXTRAPARAM
1071
        0
1071
        0
1071
        0
1040
1.0
1000

1000

1001
VD_XPROPERTIES
  0
VERTEX
  8
WS10
 62
     6
  5
826
 10
2060.0
 20
3070.0
 30
0.0
  0
VERTEX
  8
WS10
 62
     6
  5
827
 10
2280.0
 20
3070.0
 30
0.0
  0
VERTEX
  8
WS10
 62
     6
  5
828
 10
2280.0
 20
3070.0
 30
0.0
  0
SEQEND
  8
0
  5
829
  0
TEXT
  8
TEXT
  5
82A
 10
2330.0
 20
3060.0
 30
0.0
 40
20.0
  1
10-YEAR FLOOD
1001
VD_XPROPERTIES
  0
POLYLINE
  8
STREAM
 62
     1
  5
82B
 66
     1
 10
0.0
 20
0.0
 30
0.0
1001
VDEXTRAPARAM
1071
        0
1071
        0
1071
        0
1040
1.0
1000

1000

1001
VD_XPROPERTIES
  0
VERTEX
  8
STREAM
 62
     1
  5
82C
 10
2060.0
 20
3030.0
 30
0.0
  0
VERTEX
  8
STREAM
 62
     1
  5
82D
 10
2280.0
 20
3030.0
 30
0.0
  0
VERTEX
  8
STREAM
 62
     1
  5
82E
 10
2280.0
 20
3030.0
 30
0.0
  0
SEQEND
  8
0
  5
82F
  0
TEXT
  8
TEXT
  5
830
 10
2330.0
 20
3010.0
 30
0.0
 40
20.0
  1
STREAM BED
1001
VD_XPROPERTIES
  0
INSERT
  8
ROCK
 62
     1
  5
831
  2
ROCK
 10
2060.0
 20
3029.8
 30
0.0
 41
200.0
 42
200.0
1001
VD_XPROPERTIES
  0
TEXT
  8
TEXT
  5
832
 10
2330.0
 20
2960.0
 30
0.0
 40
20.0
  1
CROSS SECTION
1001
VD_XPROPERTIES
  0
TEXT
  8
TEXT
  5
833
 10
2332.0
 20
2936.665
 30
0.0
 40
20.0
  1
LOCATION
1001
VD_XPROPERTIES
  0
POLYLINE
  8
LEGEND_XSEC
  5
834
 66
     1
 10
0.0
 20
0.0
 30
0.0
1001
VDEXTRAPARAM
1071
        0
1071
        0
1071
        0
1040
1.0
1000

1000

1001
VD_XPROPERTIES
  0
VERTEX
  8
LEGEND_XSEC
  5
835
 10
2170.0
 20
2980.0
 30
0.0
  0
VERTEX
  8
LEGEND_XSEC
  5
836
 10
2144.019
 20
2965.0
 30
0.0
  0
VERTEX
  8
LEGEND_XSEC
  5
837
 10
2144.019
 20
2935.0
 30
0.0
  0
VERTEX
  8
LEGEND_XSEC
  5
838
 10
2170.0
 20
2920.0
 30
0.0
  0
VERTEX
  8
LEGEND_XSEC
  5
839
 10
2195.981
 20
2935.0
 30
0.0
  0
VERTEX
  8
LEGEND_XSEC
  5
83A
 10
2195.981
 20
2965.0
 30
0.0
  0
VERTEX
  8
LEGEND_XSEC
  5
83B
 10
2170.0
 20
2980.0
 30
0.0
  0
VERTEX
  8
LEGEND_XSEC
  5
83C
 10
2170.0
 20
2990.0
 30
0.0
  0
VERTEX
  8
LEGEND_XSEC
  5
83D
 10
2170.0
 20
2990.0
 30
0.0
  0
SEQEND
  8
0
  5
83E
  0
INSERT
  8
GRIDS
  5
83F
  2
BORDER
 10
4000.0
 20
2900.0
 30
0.0
 41
200.0
 42
200.0
1001
VD_XPROPERTIES
  0
TEXT
  8
TEXT
  5
840
 10
3935.0
 20
2891.0
 30
0.0
 40
24.0
  1
 3730
1001
VD_XPROPERTIES
  0
TEXT
  8
TEXT
  5
841
 10
3935.0
 20
3091.0
 30
0.0
 40
24.0
  1
 3740
1001
VD_XPROPERTIES
  0
TEXT
  8
TEXT
  5
842
 10
3935.0
 20
3291.0
 30
0.0
 40
24.0
  1
 3750
1001
VD_XPROPERTIES
  0
TEXT
  8
TEXT
  5
843
 10
6625.0
 20
3291.0
 30
0.0
 40
24.0
  1
 3750
1001
VD_XPROPERTIES
  0
TEXT
  8
TEXT
  5
844
 10
3935.0
 20
3491.0
 30
0.0
 40
24.0
  1
 3760
1001
VD_XPROPERTIES
  0
TEXT
  8
TEXT
  5
845
 10
6625.0
 20
3491.0
 30
0.0
 40
24.0
  1
 3760
1001
VD_XPROPERTIES
  0
TEXT
  8
TEXT
  5
846
 10
3935.0
 20
3691.0
 30
0.0
 40
24.0
  1
 3770
1001
VD_XPROPERTIES
  0
TEXT
  8
TEXT
  5
847
 10
6625.0
 20
3691.0
 30
0.0
 40
24.0
  1
 3770
1001
VD_XPROPERTIES
  0
TEXT
  8
TEXT
  5
848
 10
3935.0
 20
3891.0
 30
0.0
 40
24.0
  1
 3780
1001
VD_XPROPERTIES
  0
TEXT
  8
TEXT
  5
849
 10
6625.0
 20
3891.0
 30
0.0
 40
24.0
  1
 3780
1001
VD_XPROPERTIES
  0
TEXT
  8
TEXT
  5
84A
 10
3935.0
 20
4091.0
 30
0.0
 40
24.0
  1
 3790
1001
VD_XPROPERTIES
  0
TEXT
  8
TEXT
  5
84B
 10
6625.0
 20
4091.0
 30
0.0
 40
24.0
  1
 3790
1001
VD_XPROPERTIES
  0
TEXT
  8
TEXT
  5
84C
 10
3935.0
 20
4291.0
 30
0.0
 40
24.0
  1
 3800
1001
VD_XPROPERTIES
  0
TEXT
  8
TEXT
  5
84D
 10
6625.0
 20
4291.0
 30
0.0
 40
24.0
  1
 3800
1001
VD_XPROPERTIES
  0
TEXT
  8
TEXT
  5
84E
 10
3935.0
 20
4491.0
 30
0.0
 40
24.0
  1
 3810
1001
VD_XPROPERTIES
  0
TEXT
  8
TEXT
  5
84F
 10
6625.0
 20
4491.0
 30
0.0
 40
24.0
  1
 3810
1001
VD_XPROPERTIES
  0
TEXT
  8
TEXT
  5
850
 10
3935.0
 20
4691.0
 30
0.0
 40
24.0
  1
 3820
1001
VD_XPROPERTIES
  0
TEXT
  8
TEXT
  5
851
 10
6625.0
 20
4691.0
 30
0.0
 40
24.0
  1
 3820
1001
VD_XPROPERTIES
  0
TEXT
  8
TEXT
  5
852
 10
4003.5
 20
2860.0
 30
-0.0
 40
24.0
  1
28400
 72
     1
 11
4003.5
 21
2860.0
 31
-0.0
1001
VD_XPROPERTIES
  0
TEXT
  8
TEXT
  5
853
 10
4203.5
 20
2860.0
 30
-0.0
 40
24.0
  1
28600
 72
     1
 11
4203.5
 21
2860.0
 31
-0.0
1001
VD_XPROPERTIES
  0
TEXT
  8
TEXT
  5
854
 10
4403.5
 20
2860.0
 30
-0.0
 40
24.0
  1
28800
 72
     1
 11
4403.5
 21
2860.0
 31
-0.0
1001
VD_XPROPERTIES
  0
TEXT
  8
TEXT
  5
855
 10
4603.5
 20
2860.0
 30
-0.0
 40
24.0
  1
29000
 72
     1
 11
4603.5
 21
2860.0
 31
-0.0
1001
VD_XPROPERTIES
  0
TEXT
  8
TEXT
  5
856
 10
4803.5
 20
2860.0
 30
-0.0
 40
24.0
  1
29200
 72
     1
 11
4803.5
 21
2860.0
 31
-0.0
1001
VD_XPROPERTIES
  0
TEXT
  8
TEXT
  5
857
 10
5003.5
 20
2860.0
 30
-0.0
 40
24.0
  1
29400
 72
     1
 11
5003.5
 21
2860.0
 31
-0.0
1001
VD_XPROPERTIES
  0
TEXT
  8
TEXT
  5
858
 10
5203.5
 20
2860.0
 30
-0.0
 40
24.0
  1
29600
 72
     1
 11
5203.5
 21
2860.0
 31
-0.0
1001
VD_XPROPERTIES
  0
TEXT
  8
TEXT
  5
859
 10
5403.5
 20
2860.0
 30
-0.0
 40
24.0
  1
29800
 72
     1
 11
5403.5
 21
2860.0
 31
-0.0
1001
VD_XPROPERTIES
  0
TEXT
  8
TEXT
  5
85A
 10
5603.5
 20
2860.0
 30
-0.0
 40
24.0
  1
30000
 72
     1
 11
5603.5
 21
2860.0
 31
-0.0
1001
VD_XPROPERTIES
  0
TEXT
  8
TEXT
  5
85B
 10
5803.5
 20
2860.0
 30
-0.0
 40
24.0
  1
30200
 72
     1
 11
5803.5
 21
2860.0
 31
-0.0
1001
VD_XPROPERTIES
  0
TEXT
  8
TEXT
  5
85C
 10
6003.5
 20
2860.0
 30
-0.0
 40
24.0
  1
30400
 72
     1
 11
6003.5
 21
2860.0
 31
-0.0
1001
VD_XPROPERTIES
  0
TEXT
  8
TEXT
  5
85D
 10
6203.5
 20
2860.0
 30
-0.0
 40
24.0
  1
30600
 72
     1
 11
6203.5
 21
2860.0
 31
-0.0
1001
VD_XPROPERTIES
  0
TEXT
  8
TEXT
  5
85E
 10
6403.5
 20
2860.0
 30
-0.0
 40
24.0
  1
30800
 72
     1
 11
6403.5
 21
2860.0
 31
-0.0
1001
VD_XPROPERTIES
  0
TEXT
  8
TEXT
  5
85F
 10
6603.5
 20
2860.0
 30
-0.0
 40
24.0
  1
31000
 72
     1
 11
6603.5
 21
2860.0
 31
-0.0
1001
VD_XPROPERTIES
  0
TEXT
  8
TEXT
  5
860
 10
3888.0
 20
3800.0
 30
-0.0
 40
24.0
  1
ELEVATION IN FEET (NGVD)
 50
90.0
 72
     1
 11
3888.0
 21
3800.0
 31
-0.0
1001
VD_XPROPERTIES
  0
TEXT
  8
TEXT
  5
861
 10
5300.0
 20
2790.0
 30
-0.0
 40
24.0
  1
STREAM DISTANCE IN FEET ABOVE SEWAGE PLANT ROAD CROSSING ADJACENT TO CORPORATE LIMITS
 72
     1
 11
5300.0
 21
2790.0
 31
-0.0
1001
VD_XPROPERTIES
  0
TEXT
  8
TEXT
  5
862
 10
6750.0
 20
3205.0
 30
-0.0
 40
32.0
  1
FEDERAL EMERGENCY MANAGEMENT AGENCY
 50
90.0
 72
     1
 11
6750.0
 21
3205.0
 31
-0.0
1001
VD_XPROPERTIES
  0
TEXT
  8
TEXT
  5
863
 10
6820.0
 20
3205.0
 30
-0.0
 40
40.0
  1
GILA COUNTY, AZ
 50
90.0
 72
     1
 11
6820.0
 21
3205.0
 31
-0.0
1001
VD_XPROPERTIES
  0
TEXT
  8
TEXT
  5
864
 10
6870.0
 20
3205.0
 30
-0.0
 40
28.0
  1
(UNINCORPORATED AREAS)
 50
90.0
 72
     1
 11
6870.0
 21
3205.0
 31
-0.0
1001
VD_XPROPERTIES
  0
TEXT
  8
TEXT
  5
865
 10
6768.0
 20
4165.0
 30
-0.0
 40
40.0
  1
FLOOD PROFILES
 50
90.0
 72
     1
 11
6768.0
 21
4165.0
 31
-0.0
1001
VD_XPROPERTIES
  0
TEXT
  8
TEXT
  5
866
 10
6860.0
 20
4165.0
 30
-0.0
 40
32.0
  1
PINAL CREEK (AT GLOBE)
 50
90.0
 72
     1
 11
6860.0
 21
4165.0
 31
-0.0
1001
VD_XPROPERTIES
  0
TEXT
  8
TEXT
  5
867
 10
6800.0
 20
2770.0
 30
-0.0
 40
40.0
  1
42P
 72
     1
 11
6800.0
 21
2770.0
 31
-0.0
1001
VD_XPROPERTIES
  0
POLYLINE
  8
WS100
 62
     1
  5
868
 66
     1
 10
0.0
 20
0.0
 30
0.0
1001
VDEXTRAPARAM
1071
        0
1071
        0
1071
        0
1040
1.0
1000

1000

1001
VD_XPROPERTIES
  0
VERTEX
  8
WS100
 62
     1
  5
869
 10
4000.0
 20
3368.379
 30
0.0
  0
VERTEX
  8
WS100
 62
     1
  5
86A
 10
4436.299
 20
3520.801
 30
0.0
  0
VERTEX
  8
WS100
 62
     1
  5
86B
 10
4436.299
 20
3520.801
 30
0.0
  0
VERTEX
  8
WS100
 62
     1
  5
86C
 10
4915.199
 20
3751.201
 30
0.0
  0
VERTEX
  8
WS100
 62
     1
  5
86D
 10
4915.199
 20
3751.201
 30
0.0
  0
VERTEX
  8
WS100
 62
     1
  5
86E
 10
5237.6
 20
3863.799
 30
0.0
  0
VERTEX
  8
WS100
 62
     1
  5
86F
 10
5237.6
 20
3863.799
 30
0.0
  0
VERTEX
  8
WS100
 62
     1
  5
870
 10
5737.6
 20
4074.6
 30
0.0
  0
VERTEX
  8
WS100
 62
     1
  5
871
 10
5737.6
 20
4074.6
 30
0.0
  0
VERTEX
  8
WS100
 62
     1
  5
872
 10
5759.199
 20
4074.6
 30
0.0
  0
VERTEX
  8
WS100
 62
     1
  5
873
 10
5759.199
 20
4074.6
 30
0.0
  0
VERTEX
  8
WS100
 62
     1
  5
874
 10
5761.5
 20
4096.602
 30
0.0
  0
VERTEX
  8
WS100
 62
     1
  5
875
 10
5761.5
 20
4096.602
 30
0.0
  0
VERTEX
  8
WS100
 62
     1
  5
876
 10
5777.6
 20
4096.602
 30
0.0
  0
VERTEX
  8
WS100
 62
     1
  5
877
 10
5777.6
 20
4096.602
 30
0.0
  0
VERTEX
  8
WS100
 62
     1
  5
878
 10
5779.299
 20
4096.602
 30
0.0
  0
VERTEX
  8
WS100
 62
     1
  5
879
 10
5779.299
 20
4096.602
 30
0.0
  0
VERTEX
  8
WS100
 62
     1
  5
87A
 10
5800.898
 20
4119.199
 30
0.0
  0
VERTEX
  8
WS100
 62
     1
  5
87B
 10
5800.898
 20
4119.199
 30
0.0
  0
VERTEX
  8
WS100
 62
     1
  5
87C
 10
6305.598
 20
4283.198
 30
0.0
  0
VERTEX
  8
WS100
 62
     1
  5
87D
 10
6600.0
 20
4392.754
 30
0.0
  0
VERTEX
  8
WS100
 62
     1
  5
87E
 10
6600.0
 20
4392.754
 30
0.0
  0
VERTEX
  8
WS100
 62
     1
  5
87F
 10
6600.0
 20
4392.754
 30
0.0
  0
SEQEND
  8
0
  5
880
  0
INSERT
  8
ROCK
 62
     1
  5
881
  2
ROCK
 10
4000.0
 20
3200.547
 30
0.0
 41
200.0
 42
200.0
 50
20.53763
1001
VD_XPROPERTIES
  0
INSERT
  8
ROCK
 62
     1
  5
882
  2
ROCK
 10
4436.299
 20
3363.999
 30
0.0
 41
200.0
 42
200.0
 50
18.90372
1001
VD_XPROPERTIES
  0
INSERT
  8
ROCK
 62
     1
  5
883
  2
ROCK
 10
4915.199
 20
3527.998
 30
0.0
 41
200.0
 42
200.0
 50
26.05128
1001
VD_XPROPERTIES
  0
POLYLINE
  8
STREAM
 62
     1
  5
884
 66
     1
 10
0.0
 20
0.0
 30
0.0
1001
VDEXTRAPARAM
1071
        0
1071
        0
1071
        0
1040
1.0
1000

1000

1001
VD_XPROPERTIES
  0
VERTEX
  8
STREAM
 62
     1
  5
885
 10
4000.0
 20
3200.547
 30
0.0
  0
VERTEX
  8
STREAM
 62
     1
  5
886
 10
4436.299
 20
3363.999
 30
0.0
  0
VERTEX
  8
STREAM
 62
     1
  5
887
 10
4436.299
 20
3363.999
 30
0.0
  0
VERTEX
  8
STREAM
 62
     1
  5
888
 10
4915.199
 20
3527.998
 30
0.0
  0
VERTEX
  8
STREAM
 62
     1
  5
889
 10
4915.199
 20
3527.998
 30
0.0
  0
VERTEX
  8
STREAM
 62
     1
  5
88A
 10
5237.6
 20
3685.601
 30
0.0
  0
VERTEX
  8
STREAM
 62
     1
  5
88B
 10
5237.6
 20
3685.601
 30
0.0
  0
VERTEX
  8
STREAM
 62
     1
  5
88C
 10
5737.6
 20
3869.6
 30
0.0
  0
VERTEX
  8
STREAM
 62
     1
  5
88D
 10
5737.6
 20
3869.6
 30
0.0
  0
VERTEX
  8
STREAM
 62
     1
  5
88E
 10
5759.199
 20
3866.001
 30
0.0
  0
VERTEX
  8
STREAM
 62
     1
  5
88F
 10
5759.199
 20
3866.001
 30
0.0
  0
VERTEX
  8
STREAM
 62
     1
  5
890
 10
5761.5
 20
3866.001
 30
0.0
  0
VERTEX
  8
STREAM
 62
     1
  5
891
 10
5761.5
 20
3866.001
 30
0.0
  0
VERTEX
  8
STREAM
 62
     1
  5
892
 10
5777.6
 20
3874.399
 30
0.0
  0
VERTEX
  8
STREAM
 62
     1
  5
893
 10
5777.6
 20
3874.399
 30
0.0
  0
VERTEX
  8
STREAM
 62
     1
  5
894
 10
5779.299
 20
3874.399
 30
0.0
  0
VERTEX
  8
STREAM
 62
     1
  5
895
 10
5779.299
 20
3874.399
 30
0.0
  0
VERTEX
  8
STREAM
 62
     1
  5
896
 10
5800.898
 20
3905.2
 30
0.0
  0
VERTEX
  8
STREAM
 62
     1
  5
897
 10
5800.898
 20
3905.2
 30
0.0
  0
VERTEX
  8
STREAM
 62
     1
  5
898
 10
6305.598
 20
4035.801
 30
0.0
  0
VERTEX
  8
STREAM
 62
     1
  5
899
 10
6600.0
 20
4185.728
 30
0.0
  0
VERTEX
  8
STREAM
 62
     1
  5
89A
 10
6600.0
 20
4185.728
 30
0.0
  0
SEQEND
  8
0
  5
89B
  0
INSERT
  8
XSEC
 62
     3
  5
89C
  2
XSEC
 10
4436.299
 20
2970.0
 30
0.0
 41
200.0
 42
200.0
1001
VD_XPROPERTIES
  0
TEXT
  8
TEXT
  5
89D
 10
4436.299
 20
2970.0
 30
-0.0
 40
20.0
  1
AT
 72
     1
 11
4436.299
 21
2970.0
 31
-0.0
 73
     2
1001
VD_XPROPERTIES
  0
INSERT
  8
XSEC
 62
     3
  5
89E
  2
XSEC
 10
5800.898
 20
2970.0
 30
0.0
 41
200.0
 42
200.0
1001
VD_XPROPERTIES
  0
TEXT
  8
TEXT
  5
89F
 10
5800.898
 20
2970.0
 30
-0.0
 40
20.0
  1
AU
 72
     1
 11
5800.898
 21
2970.0
 31
-0.0
 73
     2
1001
VD_XPROPERTIES
  0
LINE
  8
BRIDGE
 62
     1
  5
8A0
 10
5769.551
 20
4024.497
 30
0.0
 11
5769.551
 21
4054.497
 31
0.0
1001
VD_XPROPERTIES
  0
INSERT
  8
BRIDGE
 62
     1
  5
8A1
  2
BAR
 10
5769.551
 20
4024.497
 30
0.0
 41
200.0
 42
200.0
1001
VD_XPROPERTIES
  0
INSERT
  8
BRIDGE
 62
     1
  5
8A2
  2
BAR
 10
5769.551
 20
4054.497
 30
0.0
 41
200.0
 42
200.0
1001
VD_XPROPERTIES
  0
POLYLINE
  8
XSECTEXTLINE
  5
8A3
 66
     1
 10
0.0
 20
0.0
 30
0.0
1001
VDEXTRAPARAM
1071
        0
1071
        0
1071
        0
1040
1.0
1000

1000

1001
VD_XPROPERTIES
  0
VERTEX
  8
XSECTEXTLINE
  5
8A4
 10
5777.6
 20
4300.0
 30
0.0
  0
VERTEX
  8
XSECTEXTLINE
  5
8A5
 10
5777.6
 20
4500.0
 30
0.0
  0
VERTEX
  8
XSECTEXTLINE
  5
8A6
 10
5777.6
 20
4500.0
 30
0.0
  0
SEQEND
  8
0
  5
8A7
  0
TEXT
  8
TEXT
  5
8A8
 10
5767.6
 20
4400.0
 30
-0.0
 40
24.0
  1
PRIVATE DRIVE
 50
90.0
 72
     1
 11
5767.6
 21
4400.0
 31
-0.0
1001
VD_XPROPERTIES
  0
POLYLINE
  8
LANDMARKLINE
  5
8A9
 66
     1
 10
0.0
 20
0.0
 30
0.0
1001
VDEXTRAPARAM
1071
        0
1071
        0
1071
        0
1040
1.0
1000

1000

1001
VD_XPROPERTIES
  0
VERTEX
  8
LANDMARKLINE
  5
8AA
 10
5202.0
 20
4300.0
 30
0.0
  0
VERTEX
  8
LANDMARKLINE
  5
8AB
 10
5202.0
 20
4500.0
 30
0.0
  0
VERTEX
  8
LANDMARKLINE
  5
8AC
 10
5202.0
 20
4500.0
 30
0.0
  0
SEQEND
  8
0
  5
8AD
  0
TEXT
  8
TEXT
  5
8AE
 10
5192.0
 20
4400.0
 30
-0.0
 40
24.0
  1
PRIVATE DRIVE
 50
90.0
 72
     1
 11
5192.0
 21
4400.0
 31
-0.0
1001
VD_XPROPERTIES
  0
POLYLINE
  8
LEGEND_BOX
  5
8AF
 66
     1
 10
0.0
 20
0.0
 30
0.0
1001
VDEXTRAPARAM
1071
        0
1071
        0
1071
        0
1040
1.0
1000

1000

1001
VD_XPROPERTIES
  0
VERTEX
  8
LEGEND_BOX
  5
8B0
 10
6010.0
 20
3290.0
 30
0.0
  0
VERTEX
  8
LEGEND_BOX
  5
8B1
 10
6010.0
 20
2910.0
 30
0.0
  0
VERTEX
  8
LEGEND_BOX
  5
8B2
 10
6590.0
 20
2910.0
 30
0.0
  0
VERTEX
  8
LEGEND_BOX
  5
8B3
 10
6590.0
 20
3290.0
 30
0.0
  0
VERTEX
  8
LEGEND_BOX
  5
8B4
 10
6010.0
 20
3290.0
 30
0.0
  0
VERTEX
  8
LEGEND_BOX
  5
8B5
 10
6010.0
 20
3290.0
 30
0.0
  0
SEQEND
  8
0
  5
8B6
  0
TEXT
  8
TEXT
  5
8B7
 10
6310.0
 20
3250.0
 30
-0.0
 40
20.0
  1
LEGEND
 72
     1
 11
6310.0
 21
3250.0
 31
-0.0
1001
VD_XPROPERTIES
  0
POLYLINE
  8
WS500
 62
     3
  5
8B8
 66
     1
 10
0.0
 20
0.0
 30
0.0
1001
VDEXTRAPARAM
1071
        0
1071
        0
1071
        0
1040
1.0
1000

1000

1001
VD_XPROPERTIES
  0
VERTEX
  8
WS500
 62
     3
  5
8B9
 10
6060.0
 20
3220.0
 30
0.0
  0
VERTEX
  8
WS500
 62
     3
  5
8BA
 10
6280.0
 20
3220.0
 30
0.0
  0
VERTEX
  8
WS500
 62
     3
  5
8BB
 10
6280.0
 20
3220.0
 30
0.0
  0
SEQEND
  8
0
  5
8BC
  0
TEXT
  8
TEXT
  5
8BD
 10
6330.0
 20
3210.0
 30
0.0
 40
20.0
  1
500-YEAR FLOOD
1001
VD_XPROPERTIES
  0
POLYLINE
  8
WS100
 62
     1
  5
8BE
 66
     1
 10
0.0
 20
0.0
 30
0.0
1001
VDEXTRAPARAM
1071
        0
1071
        0
1071
        0
1040
1.0
1000

1000

1001
VD_XPROPERTIES
  0
VERTEX
  8
WS100
 62
     1
  5
8BF
 10
6060.0
 20
3170.0
 30
0.0
  0
VERTEX
  8
WS100
 62
     1
  5
8C0
 10
6280.0
 20
3170.0
 30
0.0
  0
VERTEX
  8
WS100
 62
     1
  5
8C1
 10
6280.0
 20
3170.0
 30
0.0
  0
SEQEND
  8
0
  5
8C2
  0
TEXT
  8
TEXT
  5
8C3
 10
6330.0
 20
3160.0
 30
0.0
 40
20.0
  1
100-YEAR FLOOD
1001
VD_XPROPERTIES
  0
POLYLINE
  8
WS50
 62
     5
  5
8C4
 66
     1
 10
0.0
 20
0.0
 30
0.0
1001
VDEXTRAPARAM
1071
        0
1071
        0
1071
        0
1040
1.0
1000

1000

1001
VD_XPROPERTIES
  0
VERTEX
  8
WS50
 62
     5
  5
8C5
 10
6060.0
 20
3120.0
 30
0.0
  0
VERTEX
  8
WS50
 62
     5
  5
8C6
 10
6280.0
 20
3120.0
 30
0.0
  0
VERTEX
  8
WS50
 62
     5
  5
8C7
 10
6280.0
 20
3120.0
 30
0.0
  0
SEQEND
  8
0
  5
8C8
  0
TEXT
  8
TEXT
  5
8C9
 10
6330.0
 20
3110.0
 30
0.0
 40
20.0
  1
50-YEAR FLOOD
1001
VD_XPROPERTIES
  0
POLYLINE
  8
WS10
 62
     6
  5
8CA
 66
     1
 10
0.0
 20
0.0
 30
0.0
1001
VDEXTRAPARAM
1071
        0
1071
        0
1071
        0
1040
1.0
1000

1000

1001
VD_XPROPERTIES
  0
VERTEX
  8
WS10
 62
     6
  5
8CB
 10
6060.0
 20
3070.0
 30
0.0
  0
VERTEX
  8
WS10
 62
     6
  5
8CC
 10
6280.0
 20
3070.0
 30
0.0
  0
VERTEX
  8
WS10
 62
     6
  5
8CD
 10
6280.0
 20
3070.0
 30
0.0
  0
SEQEND
  8
0
  5
8CE
  0
TEXT
  8
TEXT
  5
8CF
 10
6330.0
 20
3060.0
 30
0.0
 40
20.0
  1
10-YEAR FLOOD
1001
VD_XPROPERTIES
  0
POLYLINE
  8
STREAM
 62
     1
  5
8D0
 66
     1
 10
0.0
 20
0.0
 30
0.0
1001
VDEXTRAPARAM
1071
        0
1071
        0
1071
        0
1040
1.0
1000

1000

1001
VD_XPROPERTIES
  0
VERTEX
  8
STREAM
 62
     1
  5
8D1
 10
6060.0
 20
3030.0
 30
0.0
  0
VERTEX
  8
STREAM
 62
     1
  5
8D2
 10
6280.0
 20
3030.0
 30
0.0
  0
VERTEX
  8
STREAM
 62
     1
  5
8D3
 10
6280.0
 20
3030.0
 30
0.0
  0
SEQEND
  8
0
  5
8D4
  0
TEXT
  8
TEXT
  5
8D5
 10
6330.0
 20
3010.0
 30
0.0
 40
20.0
  1
STREAM BED
1001
VD_XPROPERTIES
  0
INSERT
  8
ROCK
 62
     1
  5
8D6
  2
ROCK
 10
6060.0
 20
3029.8
 30
0.0
 41
200.0
 42
200.0
1001
VD_XPROPERTIES
  0
TEXT
  8
TEXT
  5
8D7
 10
6330.0
 20
2960.0
 30
0.0
 40
20.0
  1
CROSS SECTION
1001
VD_XPROPERTIES
  0
TEXT
  8
TEXT
  5
8D8
 10
6332.0
 20
2936.665
 30
0.0
 40
20.0
  1
LOCATION
1001
VD_XPROPERTIES
  0
POLYLINE
  8
LEGEND_XSEC
  5
8D9
 66
     1
 10
0.0
 20
0.0
 30
0.0
1001
VDEXTRAPARAM
1071
        0
1071
        0
1071
        0
1040
1.0
1000

1000

1001
VD_XPROPERTIES
  0
VERTEX
  8
LEGEND_XSEC
  5
8DA
 10
6170.0
 20
2980.0
 30
0.0
  0
VERTEX
  8
LEGEND_XSEC
  5
8DB
 10
6144.019
 20
2965.0
 30
0.0
  0
VERTEX
  8
LEGEND_XSEC
  5
8DC
 10
6144.019
 20
2935.0
 30
0.0
  0
VERTEX
  8
LEGEND_XSEC
  5
8DD
 10
6170.0
 20
2920.0
 30
0.0
  0
VERTEX
  8
LEGEND_XSEC
  5
8DE
 10
6195.981
 20
2935.0
 30
0.0
  0
VERTEX
  8
LEGEND_XSEC
  5
8DF
 10
6195.981
 20
2965.0
 30
0.0
  0
VERTEX
  8
LEGEND_XSEC
  5
8E0
 10
6170.0
 20
2980.0
 30
0.0
  0
VERTEX
  8
LEGEND_XSEC
  5
8E1
 10
6170.0
 20
2990.0
 30
0.0
  0
VERTEX
  8
LEGEND_XSEC
  5
8E2
 10
6170.0
 20
2990.0
 30
0.0
  0
SEQEND
  8
0
  5
8E3
  0
INSERT
  8
GRIDS
  5
8E4
  2
BORDER
 10
8000.0
 20
2700.0
 30
0.0
 41
200.0
 42
200.0
1001
VD_XPROPERTIES
  0
TEXT
  8
TEXT
  5
8E5
 10
7935.0
 20
2691.0
 30
0.0
 40
24.0
  1
 3770
1001
VD_XPROPERTIES
  0
TEXT
  8
TEXT
  5
8E6
 10
7935.0
 20
2891.0
 30
0.0
 40
24.0
  1
 3780
1001
VD_XPROPERTIES
  0
TEXT
  8
TEXT
  5
8E7
 10
7935.0
 20
3091.0
 30
0.0
 40
24.0
  1
 3790
1001
VD_XPROPERTIES
  0
TEXT
  8
TEXT
  5
8E8
 10
10625.0
 20
3091.0
 30
0.0
 40
24.0
  1
 3790
1001
VD_XPROPERTIES
  0
TEXT
  8
TEXT
  5
8E9
 10
7935.0
 20
3291.0
 30
0.0
 40
24.0
  1
 3800
1001
VD_XPROPERTIES
  0
TEXT
  8
TEXT
  5
8EA
 10
10625.0
 20
3291.0
 30
0.0
 40
24.0
  1
 3800
1001
VD_XPROPERTIES
  0
TEXT
  8
TEXT
  5
8EB
 10
7935.0
 20
3491.0
 30
0.0
 40
24.0
  1
 3810
1001
VD_XPROPERTIES
  0
TEXT
  8
TEXT
  5
8EC
 10
10625.0
 20
3491.0
 30
0.0
 40
24.0
  1
 3810
1001
VD_XPROPERTIES
  0
TEXT
  8
TEXT
  5
8ED
 10
7935.0
 20
3691.0
 30
0.0
 40
24.0
  1
 3820
1001
VD_XPROPERTIES
  0
TEXT
  8
TEXT
  5
8EE
 10
10625.0
 20
3691.0
 30
0.0
 40
24.0
  1
 3820
1001
VD_XPROPERTIES
  0
TEXT
  8
TEXT
  5
8EF
 10
7935.0
 20
3891.0
 30
0.0
 40
24.0
  1
 3830
1001
VD_XPROPERTIES
  0
TEXT
  8
TEXT
  5
8F0
 10
10625.0
 20
3891.0
 30
0.0
 40
24.0
  1
 3830
1001
VD_XPROPERTIES
  0
TEXT
  8
TEXT
  5
8F1
 10
7935.0
 20
4091.0
 30
0.0
 40
24.0
  1
 3840
1001
VD_XPROPERTIES
  0
TEXT
  8
TEXT
  5
8F2
 10
10625.0
 20
4091.0
 30
0.0
 40
24.0
  1
 3840
1001
VD_XPROPERTIES
  0
TEXT
  8
TEXT
  5
8F3
 10
7935.0
 20
4291.0
 30
0.0
 40
24.0
  1
 3850
1001
VD_XPROPERTIES
  0
TEXT
  8
TEXT
  5
8F4
 10
10625.0
 20
4291.0
 30
0.0
 40
24.0
  1
 3850
1001
VD_XPROPERTIES
  0
TEXT
  8
TEXT
  5
8F5
 10
7935.0
 20
4491.0
 30
0.0
 40
24.0
  1
 3860
1001
VD_XPROPERTIES
  0
TEXT
  8
TEXT
  5
8F6
 10
10625.0
 20
4491.0
 30
0.0
 40
24.0
  1
 3860
1001
VD_XPROPERTIES
  0
TEXT
  8
TEXT
  5
8F7
 10
8003.5
 20
2660.0
 30
-0.0
 40
24.0
  1
31000
 72
     1
 11
8003.5
 21
2660.0
 31
-0.0
1001
VD_XPROPERTIES
  0
TEXT
  8
TEXT
  5
8F8
 10
8203.5
 20
2660.0
 30
-0.0
 40
24.0
  1
31200
 72
     1
 11
8203.5
 21
2660.0
 31
-0.0
1001
VD_XPROPERTIES
  0
TEXT
  8
TEXT
  5
8F9
 10
8403.5
 20
2660.0
 30
-0.0
 40
24.0
  1
31400
 72
     1
 11
8403.5
 21
2660.0
 31
-0.0
1001
VD_XPROPERTIES
  0
TEXT
  8
TEXT
  5
8FA
 10
8603.5
 20
2660.0
 30
-0.0
 40
24.0
  1
31600
 72
     1
 11
8603.5
 21
2660.0
 31
-0.0
1001
VD_XPROPERTIES
  0
TEXT
  8
TEXT
  5
8FB
 10
8803.5
 20
2660.0
 30
-0.0
 40
24.0
  1
31800
 72
     1
 11
8803.5
 21
2660.0
 31
-0.0
1001
VD_XPROPERTIES
  0
TEXT
  8
TEXT
  5
8FC
 10
9003.5
 20
2660.0
 30
-0.0
 40
24.0
  1
32000
 72
     1
 11
9003.5
 21
2660.0
 31
-0.0
1001
VD_XPROPERTIES
  0
TEXT
  8
TEXT
  5
8FD
 10
9203.5
 20
2660.0
 30
-0.0
 40
24.0
  1
32200
 72
     1
 11
9203.5
 21
2660.0
 31
-0.0
1001
VD_XPROPERTIES
  0
TEXT
  8
TEXT
  5
8FE
 10
9403.5
 20
2660.0
 30
-0.0
 40
24.0
  1
32400
 72
     1
 11
9403.5
 21
2660.0
 31
-0.0
1001
VD_XPROPERTIES
  0
TEXT
  8
TEXT
  5
8FF
 10
9603.5
 20
2660.0
 30
-0.0
 40
24.0
  1
32600
 72
     1
 11
9603.5
 21
2660.0
 31
-0.0
1001
VD_XPROPERTIES
  0
TEXT
  8
TEXT
  5
900
 10
9803.5
 20
2660.0
 30
-0.0
 40
24.0
  1
32800
 72
     1
 11
9803.5
 21
2660.0
 31
-0.0
1001
VD_XPROPERTIES
  0
TEXT
  8
TEXT
  5
901
 10
10003.5
 20
2660.0
 30
-0.0
 40
24.0
  1
33000
 72
     1
 11
10003.5
 21
2660.0
 31
-0.0
1001
VD_XPROPERTIES
  0
TEXT
  8
TEXT
  5
902
 10
10203.5
 20
2660.0
 30
-0.0
 40
24.0
  1
33200
 72
     1
 11
10203.5
 21
2660.0
 31
-0.0
1001
VD_XPROPERTIES
  0
TEXT
  8
TEXT
  5
903
 10
10403.5
 20
2660.0
 30
-0.0
 40
24.0
  1
33400
 72
     1
 11
10403.5
 21
2660.0
 31
-0.0
1001
VD_XPROPERTIES
  0
TEXT
  8
TEXT
  5
904
 10
10603.5
 20
2660.0
 30
-0.0
 40
24.0
  1
33600
 72
     1
 11
10603.5
 21
2660.0
 31
-0.0
1001
VD_XPROPERTIES
  0
TEXT
  8
TEXT
  5
905
 10
7888.0
 20
3600.0
 30
-0.0
 40
24.0
  1
ELEVATION IN FEET (NGVD)
 50
90.0
 72
     1
 11
7888.0
 21
3600.0
 31
-0.0
1001
VD_XPROPERTIES
  0
TEXT
  8
TEXT
  5
906
 10
9300.0
 20
2590.0
 30
-0.0
 40
24.0
  1
STREAM DISTANCE IN FEET ABOVE SEWAGE PLANT ROAD CROSSING ADJACENT TO CORPORATE LIMITS
 72
     1
 11
9300.0
 21
2590.0
 31
-0.0
1001
VD_XPROPERTIES
  0
TEXT
  8
TEXT
  5
907
 10
10750.0
 20
3005.0
 30
-0.0
 40
32.0
  1
FEDERAL EMERGENCY MANAGEMENT AGENCY
 50
90.0
 72
     1
 11
10750.0
 21
3005.0
 31
-0.0
1001
VD_XPROPERTIES
  0
TEXT
  8
TEXT
  5
908
 10
10820.0
 20
3005.0
 30
-0.0
 40
40.0
  1
GILA COUNTY, AZ
 50
90.0
 72
     1
 11
10820.0
 21
3005.0
 31
-0.0
1001
VD_XPROPERTIES
  0
TEXT
  8
TEXT
  5
909
 10
10870.0
 20
3005.0
 30
-0.0
 40
28.0
  1
(UNINCORPORATED AREAS)
 50
90.0
 72
     1
 11
10870.0
 21
3005.0
 31
-0.0
1001
VD_XPROPERTIES
  0
TEXT
  8
TEXT
  5
90A
 10
10768.0
 20
3965.0
 30
-0.0
 40
40.0
  1
FLOOD PROFILES
 50
90.0
 72
     1
 11
10768.0
 21
3965.0
 31
-0.0
1001
VD_XPROPERTIES
  0
TEXT
  8
TEXT
  5
90B
 10
10860.0
 20
3965.0
 30
-0.0
 40
32.0
  1
PINAL CREEK (AT GLOBE)
 50
90.0
 72
     1
 11
10860.0
 21
3965.0
 31
-0.0
1001
VD_XPROPERTIES
  0
TEXT
  8
TEXT
  5
90C
 10
10800.0
 20
2570.0
 30
-0.0
 40
40.0
  1
43P
 72
     1
 11
10800.0
 21
2570.0
 31
-0.0
1001
VD_XPROPERTIES
  0
POLYLINE
  8
WS100
 62
     1
  5
90D
 66
     1
 10
0.0
 20
0.0
 30
0.0
1001
VDEXTRAPARAM
1071
        0
1071
        0
1071
        0
1040
1.0
1000

1000

1001
VD_XPROPERTIES
  0
VERTEX
  8
WS100
 62
     1
  5
90E
 10
8000.0
 20
3392.754
 30
0.0
  0
VERTEX
  8
WS100
 62
     1
  5
90F
 10
8234.998
 20
3480.2
 30
0.0
  0
VERTEX
  8
WS100
 62
     1
  5
910
 10
8234.998
 20
3480.2
 30
0.0
  0
SEQEND
  8
0
  5
911
  0
INSERT
  8
ROCK
 62
     1
  5
912
  2
ROCK
 10
8000.0
 20
3185.728
 30
0.0
 41
200.0
 42
200.0
 50
26.98749
1001
VD_XPROPERTIES
  0
POLYLINE
  8
STREAM
 62
     1
  5
913
 66
     1
 10
0.0
 20
0.0
 30
0.0
1001
VDEXTRAPARAM
1071
        0
1071
        0
1071
        0
1040
1.0
1000

1000

1001
VD_XPROPERTIES
  0
VERTEX
  8
STREAM
 62
     1
  5
914
 10
8000.0
 20
3185.728
 30
0.0
  0
VERTEX
  8
STREAM
 62
     1
  5
915
 10
8234.998
 20
3305.4
 30
0.0
  0
VERTEX
  8
STREAM
 62
     1
  5
916
 10
8234.998
 20
3305.4
 30
0.0
  0
SEQEND
  8
0
  5
917
  0
INSERT
  8
XSEC
 62
     3
  5
918
  2
XSEC
 10
8234.998
 20
2770.0
 30
0.0
 41
200.0
 42
200.0
1001
VD_XPROPERTIES
  0
TEXT
  8
TEXT
  5
919
 10
8234.998
 20
2770.0
 30
-0.0
 40
20.0
  1
AV
 72
     1
 11
8234.998
 21
2770.0
 31
-0.0
 73
     2
1001
VD_XPROPERTIES
  0
POLYLINE
  8
XSECTEXTLINE
  5
91A
 66
     1
 10
0.0
 20
0.0
 30
0.0
1001
VDEXTRAPARAM
1071
        0
1071
        0
1071
        0
1040
1.0
1000

1000

1001
VD_XPROPERTIES
  0
VERTEX
  8
XSECTEXTLINE
  5
91B
 10
8234.998
 20
4100.0
 30
0.0
  0
VERTEX
  8
XSECTEXTLINE
  5
91C
 10
8234.998
 20
4300.0
 30
0.0
  0
VERTEX
  8
XSECTEXTLINE
  5
91D
 10
8234.998
 20
4300.0
 30
0.0
  0
SEQEND
  8
0
  5
91E
  0
TEXT
  8
TEXT
  5
91F
 10
8224.998
 20
4200.0
 30
-0.0
 40
24.0
  1
LIMIT OF STUDY
 50
90.0
 72
     1
 11
8224.998
 21
4200.0
 31
-0.0
1001
VD_XPROPERTIES
  0
POLYLINE
  8
LEGEND_BOX
  5
920
 66
     1
 10
0.0
 20
0.0
 30
0.0
1001
VDEXTRAPARAM
1071
        0
1071
        0
1071
        0
1040
1.0
1000

1000

1001
VD_XPROPERTIES
  0
VERTEX
  8
LEGEND_BOX
  5
921
 10
10010.0
 20
3090.0
 30
0.0
  0
VERTEX
  8
LEGEND_BOX
  5
922
 10
10010.0
 20
2710.0
 30
0.0
  0
VERTEX
  8
LEGEND_BOX
  5
923
 10
10590.0
 20
2710.0
 30
0.0
  0
VERTEX
  8
LEGEND_BOX
  5
924
 10
10590.0
 20
3090.0
 30
0.0
  0
VERTEX
  8
LEGEND_BOX
  5
925
 10
10010.0
 20
3090.0
 30
0.0
  0
VERTEX
  8
LEGEND_BOX
  5
926
 10
10010.0
 20
3090.0
 30
0.0
  0
SEQEND
  8
0
  5
927
  0
TEXT
  8
TEXT
  5
928
 10
10310.0
 20
3050.0
 30
-0.0
 40
20.0
  1
LEGEND
 72
     1
 11
10310.0
 21
3050.0
 31
-0.0
1001
VD_XPROPERTIES
  0
POLYLINE
  8
WS500
 62
     3
  5
929
 66
     1
 10
0.0
 20
0.0
 30
0.0
1001
VDEXTRAPARAM
1071
        0
1071
        0
1071
        0
1040
1.0
1000

1000

1001
VD_XPROPERTIES
  0
VERTEX
  8
WS500
 62
     3
  5
92A
 10
10060.0
 20
3020.0
 30
0.0
  0
VERTEX
  8
WS500
 62
     3
  5
92B
 10
10280.0
 20
3020.0
 30
0.0
  0
VERTEX
  8
WS500
 62
     3
  5
92C
 10
10280.0
 20
3020.0
 30
0.0
  0
SEQEND
  8
0
  5
92D
  0
TEXT
  8
TEXT
  5
92E
 10
10330.0
 20
3010.0
 30
0.0
 40
20.0
  1
500-YEAR FLOOD
1001
VD_XPROPERTIES
  0
POLYLINE
  8
WS100
 62
     1
  5
92F
 66
     1
 10
0.0
 20
0.0
 30
0.0
1001
VDEXTRAPARAM
1071
        0
1071
        0
1071
        0
1040
1.0
1000

1000

1001
VD_XPROPERTIES
  0
VERTEX
  8
WS100
 62
     1
  5
930
 10
10060.0
 20
2970.0
 30
0.0
  0
VERTEX
  8
WS100
 62
     1
  5
931
 10
10280.0
 20
2970.0
 30
0.0
  0
VERTEX
  8
WS100
 62
     1
  5
932
 10
10280.0
 20
2970.0
 30
0.0
  0
SEQEND
  8
0
  5
933
  0
TEXT
  8
TEXT
  5
934
 10
10330.0
 20
2960.0
 30
0.0
 40
20.0
  1
100-YEAR FLOOD
1001
VD_XPROPERTIES
  0
POLYLINE
  8
WS50
 62
     5
  5
935
 66
     1
 10
0.0
 20
0.0
 30
0.0
1001
VDEXTRAPARAM
1071
        0
1071
        0
1071
        0
1040
1.0
1000

1000

1001
VD_XPROPERTIES
  0
VERTEX
  8
WS50
 62
     5
  5
936
 10
10060.0
 20
2920.0
 30
0.0
  0
VERTEX
  8
WS50
 62
     5
  5
937
 10
10280.0
 20
2920.0
 30
0.0
  0
VERTEX
  8
WS50
 62
     5
  5
938
 10
10280.0
 20
2920.0
 30
0.0
  0
SEQEND
  8
0
  5
939
  0
TEXT
  8
TEXT
  5
93A
 10
10330.0
 20
2910.0
 30
0.0
 40
20.0
  1
50-YEAR FLOOD
1001
VD_XPROPERTIES
  0
POLYLINE
  8
WS10
 62
     6
  5
93B
 66
     1
 10
0.0
 20
0.0
 30
0.0
1001
VDEXTRAPARAM
1071
        0
1071
        0
1071
        0
1040
1.0
1000

1000

1001
VD_XPROPERTIES
  0
VERTEX
  8
WS10
 62
     6
  5
93C
 10
10060.0
 20
2870.0
 30
0.0
  0
VERTEX
  8
WS10
 62
     6
  5
93D
 10
10280.0
 20
2870.0
 30
0.0
  0
VERTEX
  8
WS10
 62
     6
  5
93E
 10
10280.0
 20
2870.0
 30
0.0
  0
SEQEND
  8
0
  5
93F
  0
TEXT
  8
TEXT
  5
940
 10
10330.0
 20
2860.0
 30
0.0
 40
20.0
  1
10-YEAR FLOOD
1001
VD_XPROPERTIES
  0
POLYLINE
  8
STREAM
 62
     1
  5
941
 66
     1
 10
0.0
 20
0.0
 30
0.0
1001
VDEXTRAPARAM
1071
        0
1071
        0
1071
        0
1040
1.0
1000

1000

1001
VD_XPROPERTIES
  0
VERTEX
  8
STREAM
 62
     1
  5
942
 10
10060.0
 20
2830.0
 30
0.0
  0
VERTEX
  8
STREAM
 62
     1
  5
943
 10
10280.0
 20
2830.0
 30
0.0
  0
VERTEX
  8
STREAM
 62
     1
  5
944
 10
10280.0
 20
2830.0
 30
0.0
  0
SEQEND
  8
0
  5
945
  0
TEXT
  8
TEXT
  5
946
 10
10330.0
 20
2810.0
 30
0.0
 40
20.0
  1
STREAM BED
1001
VD_XPROPERTIES
  0
INSERT
  8
ROCK
 62
     1
  5
947
  2
ROCK
 10
10060.0
 20
2829.8
 30
0.0
 41
200.0
 42
200.0
1001
VD_XPROPERTIES
  0
TEXT
  8
TEXT
  5
948
 10
10330.0
 20
2760.0
 30
0.0
 40
20.0
  1
CROSS SECTION
1001
VD_XPROPERTIES
  0
TEXT
  8
TEXT
  5
949
 10
10332.0
 20
2736.665
 30
0.0
 40
20.0
  1
LOCATION
1001
VD_XPROPERTIES
  0
POLYLINE
  8
LEGEND_XSEC
  5
94A
 66
     1
 10
0.0
 20
0.0
 30
0.0
1001
VDEXTRAPARAM
1071
        0
1071
        0
1071
        0
1040
1.0
1000

1000

1001
VD_XPROPERTIES
  0
VERTEX
  8
LEGEND_XSEC
  5
94B
 10
10170.0
 20
2780.0
 30
0.0
  0
VERTEX
  8
LEGEND_XSEC
  5
94C
 10
10144.02
 20
2765.0
 30
0.0
  0
VERTEX
  8
LEGEND_XSEC
  5
94D
 10
10144.02
 20
2735.0
 30
0.0
  0
VERTEX
  8
LEGEND_XSEC
  5
94E
 10
10170.0
 20
2720.0
 30
0.0
  0
VERTEX
  8
LEGEND_XSEC
  5
94F
 10
10195.98
 20
2735.0
 30
0.0
  0
VERTEX
  8
LEGEND_XSEC
  5
950
 10
10195.98
 20
2765.0
 30
0.0
  0
VERTEX
  8
LEGEND_XSEC
  5
951
 10
10170.0
 20
2780.0
 30
0.0
  0
VERTEX
  8
LEGEND_XSEC
  5
952
 10
10170.0
 20
2790.0
 30
0.0
  0
VERTEX
  8
LEGEND_XSEC
  5
953
 10
10170.0
 20
2790.0
 30
0.0
  0
SEQEND
  8
0
  5
954
  0
INSERT
  8
SYMBOL
 62
     2
  5
955
  2
ADO102
 10
-2200.0
 20
0.0
 30
0.0
1001
VD_XPROPERTIES
  0
INSERT
  8
SYMBOL
 62
     2
  5
956
  2
ADO102
 10
-2200.0
 20
0.0
 30
0.0
1001
VD_XPROPERTIES
  0
INSERT
  8
SYMBOL
 62
     2
  5
957
  2
ADO102
 10
-2200.0
 20
0.0
 30
0.0
1001
VD_XPROPERTIES
  0
INSERT
  8
SYMBOL
 62
     2
  5
958
  2
ADO102
 10
-2200.0
 20
0.0
 30
0.0
1001
VD_XPROPERTIES
  0
INSERT
  8
SYMBOL
 62
     2
  5
959
  2
ADO102
 10
-2200.0
 20
0.0
 30
0.0
1001
VD_XPROPERTIES
  0
INSERT
  8
SYMBOL
 62
     2
  5
95A
  2
ADO102
 10
-2200.0
 20
0.0
 30
0.0
1001
VD_XPROPERTIES
  0
INSERT
  8
SYMBOL
 62
     2
  5
95B
  2
ADO102
 10
-2200.0
 20
0.0
 30
0.0
1001
VD_XPROPERTIES
  0
INSERT
  8
SYMBOL
 62
     2
  5
95C
  2
ADO102
 10
-2200.0
 20
0.0
 30
0.0
1001
VD_XPROPERTIES
  0
ENDSEC
  0
EOF
